ISO-10303-21;
HEADER;
FILE_DESCRIPTION( ( 'STEP AP214' ), '1' );
FILE_NAME( '//goodhand-server/Shared Folders/GoodHand Data/Kipp CAD/K0729/K0729.114.stp', '2020-12-09T14:33:18', ( '' ), ( '' ), ' ', 'PARTsolutions', ' ' );
FILE_SCHEMA( ( 'AUTOMOTIVE_DESIGN { 1 0 10303 214 1 1 1 1 }' ) );
ENDSEC;
DATA;
#1 = MECHANICAL_DESIGN_GEOMETRIC_PRESENTATION_REPRESENTATION( ' ', ( #10, #11, #12, #13, #14 ), #6 );
#2 = PRODUCT_DEFINITION_CONTEXT( '', #15, 'design' );
#3 = APPLICATION_PROTOCOL_DEFINITION( 'international standard', 'automotive_design', 2001, #15 );
#4 = PRODUCT_CATEGORY_RELATIONSHIP( 'NONE', 'NONE', #16, #17 );
#5 = SHAPE_DEFINITION_REPRESENTATION( #18, #19 );
#6 =  ( GEOMETRIC_REPRESENTATION_CONTEXT( 3 )GLOBAL_UNCERTAINTY_ASSIGNED_CONTEXT( ( #22 ) )GLOBAL_UNIT_ASSIGNED_CONTEXT( ( #24, #25, #26 ) )REPRESENTATION_CONTEXT( 'NONE', 'WORKSPACE' ) );
#10 = STYLED_ITEM( '', ( #28 ), #29 );
#11 = STYLED_ITEM( '', ( #30 ), #31 );
#12 = STYLED_ITEM( '', ( #32 ), #33 );
#13 = STYLED_ITEM( '', ( #34 ), #35 );
#14 = STYLED_ITEM( '', ( #36 ), #37 );
#15 = APPLICATION_CONTEXT( 'core data for automotive mechanical design processes' );
#16 = PRODUCT_CATEGORY( 'part', 'NONE' );
#17 = PRODUCT_RELATED_PRODUCT_CATEGORY( 'detail', ' ', ( #38 ) );
#18 = PRODUCT_DEFINITION_SHAPE( 'NONE', 'NONE', #39 );
#19 = ADVANCED_BREP_SHAPE_REPRESENTATION( '_K0729.114', ( #40, #41 ), #6 );
#22 = UNCERTAINTY_MEASURE_WITH_UNIT( LENGTH_MEASURE( 0.00100000000000000 ), #24, '', '' );
#24 =  ( CONVERSION_BASED_UNIT( 'MILLIMETRE', #44 )LENGTH_UNIT(  )NAMED_UNIT( #47 ) );
#25 =  ( NAMED_UNIT( #49 )PLANE_ANGLE_UNIT(  )SI_UNIT( $, .RADIAN. ) );
#26 =  ( NAMED_UNIT( #49 )SI_UNIT( $, .STERADIAN. )SOLID_ANGLE_UNIT(  ) );
#28 = PRESENTATION_STYLE_ASSIGNMENT( ( #55 ) );
#29 = ADVANCED_FACE( '', ( #56, #57 ), #58, .F. );
#30 = PRESENTATION_STYLE_ASSIGNMENT( ( #59 ) );
#31 = ADVANCED_FACE( '', ( #60, #61 ), #62, .F. );
#32 = PRESENTATION_STYLE_ASSIGNMENT( ( #63 ) );
#33 = ADVANCED_FACE( '', ( #64, #65 ), #66, .T. );
#34 = PRESENTATION_STYLE_ASSIGNMENT( ( #67 ) );
#35 = ADVANCED_FACE( '', ( #68, #69 ), #70, .F. );
#36 = PRESENTATION_STYLE_ASSIGNMENT( ( #71 ) );
#37 = ADVANCED_FACE( '', ( #72, #73 ), #74, .T. );
#38 = PRODUCT( '_K0729.114', '_K0729.114', 'PART-_K0729.114-DESC', ( #75 ) );
#39 = PRODUCT_DEFINITION( 'NONE', 'NONE', #76, #2 );
#40 = MANIFOLD_SOLID_BREP( '_K0729.114', #77 );
#41 = AXIS2_PLACEMENT_3D( '', #78, #79, #80 );
#44 = LENGTH_MEASURE_WITH_UNIT( LENGTH_MEASURE( 1.00000000000000 ), #81 );
#47 = DIMENSIONAL_EXPONENTS( 1.00000000000000, 0.000000000000000, 0.000000000000000, 0.000000000000000, 0.000000000000000, 0.000000000000000, 0.000000000000000 );
#49 = DIMENSIONAL_EXPONENTS( 0.000000000000000, 0.000000000000000, 0.000000000000000, 0.000000000000000, 0.000000000000000, 0.000000000000000, 0.000000000000000 );
#55 = SURFACE_STYLE_USAGE( .BOTH., #82 );
#56 = FACE_OUTER_BOUND( '', #83, .T. );
#57 = FACE_BOUND( '', #84, .T. );
#58 = CONICAL_SURFACE( '', #85, 7.50000000000000, 0.785398163400000 );
#59 = SURFACE_STYLE_USAGE( .BOTH., #86 );
#60 = FACE_OUTER_BOUND( '', #87, .T. );
#61 = FACE_OUTER_BOUND( '', #88, .T. );
#62 = CYLINDRICAL_SURFACE( '', #89, 7.50000000000000 );
#63 = SURFACE_STYLE_USAGE( .BOTH., #90 );
#64 = FACE_OUTER_BOUND( '', #91, .T. );
#65 = FACE_OUTER_BOUND( '', #92, .T. );
#66 = ( BOUNDED_SURFACE(  )B_SPLINE_SURFACE( 3, 3, ( ( #95, #96, #97, #98, #99, #100, #101 ), ( #102, #103, #104, #105, #106, #107, #108 ), ( #109, #110, #111, #112, #113, #114, #115 ), ( #116, #117, #118, #119, #120, #121, #122 ) ), .UNSPECIFIED., .F., .T., .F. )B_SPLINE_SURFACE_WITH_KNOTS( ( 4, 4 ), ( 4, 3, 4 ), ( 0.000000000000000, 6.28318530717959 ), ( -1.21373209218219, -1.04176585571525, -0.869799619248305 ), .UNSPECIFIED. )GEOMETRIC_REPRESENTATION_ITEM(  )RATIONAL_B_SPLINE_SURFACE( ( ( 1.00000000000000, 0.333333333333333, 0.333333333333333, 1.00000000000000, 0.333333333333333, 0.333333333333333, 1.00000000000000 ), ( 0.990166806295041, 0.330055602098347, 0.330055602098347, 0.990166806295041, 0.330055602098347, 0.330055602098347, 0.990166806295041 ), ( 0.990166806295041, 0.330055602098347, 0.330055602098347, 0.990166806295041, 0.330055602098347, 0.330055602098347, 0.990166806295041 ), ( 1.00000000000000, 0.333333333333333, 0.333333333333333, 1.00000000000000, 0.333333333333333, 0.333333333333333, 1.00000000000000 ) ) )REPRESENTATION_ITEM( '' )SURFACE(  ) );
#67 = SURFACE_STYLE_USAGE( .BOTH., #128 );
#68 = FACE_BOUND( '', #129, .T. );
#69 = FACE_OUTER_BOUND( '', #130, .T. );
#70 = PLANE( '', #131 );
#71 = SURFACE_STYLE_USAGE( .BOTH., #132 );
#72 = FACE_OUTER_BOUND( '', #133, .T. );
#73 = FACE_OUTER_BOUND( '', #134, .T. );
#74 = CYLINDRICAL_SURFACE( '', #135, 14.0000000000000 );
#75 = PRODUCT_CONTEXT( '', #15, 'mechanical' );
#76 = PRODUCT_DEFINITION_FORMATION_WITH_SPECIFIED_SOURCE( ' ', 'NONE', #38, .NOT_KNOWN. );
#77 = CLOSED_SHELL( '', ( #29, #31, #33, #37, #35 ) );
#78 = CARTESIAN_POINT( '', ( 0.000000000000000, 0.000000000000000, 0.000000000000000 ) );
#79 = DIRECTION( '', ( 0.000000000000000, 0.000000000000000, 1.00000000000000 ) );
#80 = DIRECTION( '', ( 1.00000000000000, 0.000000000000000, 0.000000000000000 ) );
#81 =  ( LENGTH_UNIT(  )NAMED_UNIT( #47 )SI_UNIT( .MILLI., .METRE. ) );
#82 = SURFACE_SIDE_STYLE( '', ( #137 ) );
#83 = EDGE_LOOP( '', ( #138 ) );
#84 = EDGE_LOOP( '', ( #139 ) );
#85 = AXIS2_PLACEMENT_3D( '', #140, #141, #142 );
#86 = SURFACE_SIDE_STYLE( '', ( #143 ) );
#87 = EDGE_LOOP( '', ( #144 ) );
#88 = EDGE_LOOP( '', ( #145 ) );
#89 = AXIS2_PLACEMENT_3D( '', #146, #147, #148 );
#90 = SURFACE_SIDE_STYLE( '', ( #149 ) );
#91 = EDGE_LOOP( '', ( #150 ) );
#92 = EDGE_LOOP( '', ( #151 ) );
#95 = CARTESIAN_POINT( '', ( 0.000000000000000, -1.20000000000002, 14.0000000000000 ) );
#96 = CARTESIAN_POINT( '', ( 28.0000000000000, -1.20000000000002, 14.0000000000000 ) );
#97 = CARTESIAN_POINT( '', ( 28.0000000000000, -1.20000000000002, -14.0000000000000 ) );
#98 = CARTESIAN_POINT( '', ( 0.000000000000000, -1.20000000000002, -14.0000000000000 ) );
#99 = CARTESIAN_POINT( '', ( -28.0000000000000, -1.20000000000002, -14.0000000000000 ) );
#100 = CARTESIAN_POINT( '', ( -28.0000000000000, -1.20000000000002, 14.0000000000000 ) );
#101 = CARTESIAN_POINT( '', ( 0.000000000000000, -1.20000000000002, 14.0000000000000 ) );
#102 = CARTESIAN_POINT( '', ( 0.000000000000000, -2.83481890212965, 12.0629961694239 ) );
#103 = CARTESIAN_POINT( '', ( 24.1259923388478, -2.83481890212965, 12.0629961694239 ) );
#104 = CARTESIAN_POINT( '', ( 24.1259923388478, -2.83481890212965, -12.0629961694239 ) );
#105 = CARTESIAN_POINT( '', ( 0.000000000000000, -2.83481890212965, -12.0629961694239 ) );
#106 = CARTESIAN_POINT( '', ( -24.1259923388478, -2.83481890212965, -12.0629961694239 ) );
#107 = CARTESIAN_POINT( '', ( -24.1259923388478, -2.83481890212965, 12.0629961694239 ) );
#108 = CARTESIAN_POINT( '', ( 0.000000000000000, -2.83481890212965, 12.0629961694239 ) );
#109 = CARTESIAN_POINT( '', ( 0.000000000000000, -4.11406463993237, 9.87481267055080 ) );
#110 = CARTESIAN_POINT( '', ( 19.7496253411016, -4.11406463993237, 9.87481267055081 ) );
#111 = CARTESIAN_POINT( '', ( 19.7496253411016, -4.11406463993237, -9.87481267055081 ) );
#112 = CARTESIAN_POINT( '', ( 0.000000000000000, -4.11406463993237, -9.87481267055080 ) );
#113 = CARTESIAN_POINT( '', ( -19.7496253411016, -4.11406463993237, -9.87481267055081 ) );
#114 = CARTESIAN_POINT( '', ( -19.7496253411016, -4.11406463993237, 9.87481267055081 ) );
#115 = CARTESIAN_POINT( '', ( 0.000000000000000, -4.11406463993237, 9.87481267055080 ) );
#116 = CARTESIAN_POINT( '', ( 0.000000000000000, -5.00000000000000, 7.49999999999999 ) );
#117 = CARTESIAN_POINT( '', ( 15.0000000000000, -5.00000000000000, 7.49999999999999 ) );
#118 = CARTESIAN_POINT( '', ( 15.0000000000000, -5.00000000000000, -7.49999999999999 ) );
#119 = CARTESIAN_POINT( '', ( 0.000000000000000, -5.00000000000000, -7.49999999999999 ) );
#120 = CARTESIAN_POINT( '', ( -15.0000000000000, -5.00000000000000, -7.49999999999999 ) );
#121 = CARTESIAN_POINT( '', ( -15.0000000000000, -5.00000000000000, 7.49999999999999 ) );
#122 = CARTESIAN_POINT( '', ( 0.000000000000000, -5.00000000000000, 7.49999999999999 ) );
#128 = SURFACE_SIDE_STYLE( '', ( #152 ) );
#129 = EDGE_LOOP( '', ( #153 ) );
#130 = EDGE_LOOP( '', ( #154 ) );
#131 = AXIS2_PLACEMENT_3D( '', #155, #156, #157 );
#132 = SURFACE_SIDE_STYLE( '', ( #158 ) );
#133 = EDGE_LOOP( '', ( #159 ) );
#134 = EDGE_LOOP( '', ( #160 ) );
#135 = AXIS2_PLACEMENT_3D( '', #161, #162, #163 );
#137 = SURFACE_STYLE_FILL_AREA( #164 );
#138 = ORIENTED_EDGE( '', *, *, #165, .T. );
#139 = ORIENTED_EDGE( '', *, *, #166, .F. );
#140 = CARTESIAN_POINT( '', ( 0.000000000000000, -0.499999999999999, 0.000000000000000 ) );
#141 = DIRECTION( '', ( -0.000000000000000, 1.00000000000000, -0.000000000000000 ) );
#142 = DIRECTION( '', ( 0.000000000000000, 0.000000000000000, 1.00000000000000 ) );
#143 = SURFACE_STYLE_FILL_AREA( #167 );
#144 = ORIENTED_EDGE( '', *, *, #166, .T. );
#145 = ORIENTED_EDGE( '', *, *, #168, .F. );
#146 = CARTESIAN_POINT( '', ( 0.000000000000000, 0.000000000000000, 0.000000000000000 ) );
#147 = DIRECTION( '', ( 0.000000000000000, -1.00000000000000, -0.000000000000000 ) );
#148 = DIRECTION( '', ( 0.000000000000000, 0.000000000000000, 1.00000000000000 ) );
#149 = SURFACE_STYLE_FILL_AREA( #169 );
#150 = ORIENTED_EDGE( '', *, *, #168, .T. );
#151 = ORIENTED_EDGE( '', *, *, #170, .F. );
#152 = SURFACE_STYLE_FILL_AREA( #171 );
#153 = ORIENTED_EDGE( '', *, *, #165, .F. );
#154 = ORIENTED_EDGE( '', *, *, #172, .T. );
#155 = CARTESIAN_POINT( '', ( -14.0000000000000, 0.000000000000000, 0.000000000000000 ) );
#156 = DIRECTION( '', ( 0.000000000000000, -1.00000000000000, 0.000000000000000 ) );
#157 = DIRECTION( '', ( 0.000000000000000, 0.000000000000000, -1.00000000000000 ) );
#158 = SURFACE_STYLE_FILL_AREA( #173 );
#159 = ORIENTED_EDGE( '', *, *, #172, .F. );
#160 = ORIENTED_EDGE( '', *, *, #170, .T. );
#161 = CARTESIAN_POINT( '', ( 0.000000000000000, 0.000000000000000, 0.000000000000000 ) );
#162 = DIRECTION( '', ( 0.000000000000000, -1.00000000000000, -0.000000000000000 ) );
#163 = DIRECTION( '', ( 0.000000000000000, 0.000000000000000, 1.00000000000000 ) );
#164 = FILL_AREA_STYLE( '', ( #174 ) );
#165 = EDGE_CURVE( '', #175, #175, #176, .F. );
#166 = EDGE_CURVE( '', #177, #177, #178, .T. );
#167 = FILL_AREA_STYLE( '', ( #179 ) );
#168 = EDGE_CURVE( '', #180, #180, #181, .T. );
#169 = FILL_AREA_STYLE( '', ( #182 ) );
#170 = EDGE_CURVE( '', #183, #183, #184, .T. );
#171 = FILL_AREA_STYLE( '', ( #185 ) );
#172 = EDGE_CURVE( '', #186, #186, #187, .T. );
#173 = FILL_AREA_STYLE( '', ( #188 ) );
#174 = FILL_AREA_STYLE_COLOUR( '', #189 );
#175 = VERTEX_POINT( '', #190 );
#176 = CIRCLE( '', #191, 8.00000000000000 );
#177 = VERTEX_POINT( '', #192 );
#178 = CIRCLE( '', #193, 7.50000000000000 );
#179 = FILL_AREA_STYLE_COLOUR( '', #194 );
#180 = VERTEX_POINT( '', #195 );
#181 = CIRCLE( '', #196, 7.50000000000000 );
#182 = FILL_AREA_STYLE_COLOUR( '', #197 );
#183 = VERTEX_POINT( '', #198 );
#184 = CIRCLE( '', #199, 14.0000000000000 );
#185 = FILL_AREA_STYLE_COLOUR( '', #200 );
#186 = VERTEX_POINT( '', #201 );
#187 = CIRCLE( '', #202, 14.0000000000000 );
#188 = FILL_AREA_STYLE_COLOUR( '', #203 );
#189 = COLOUR_RGB( '', 0.689999997600000, 0.689999997600000, 0.689999997600000 );
#190 = CARTESIAN_POINT( '', ( 0.000000000000000, 0.000000000000000, -8.00000000000000 ) );
#191 = AXIS2_PLACEMENT_3D( '', #204, #205, #206 );
#192 = CARTESIAN_POINT( '', ( 0.000000000000000, -0.499999999999999, 7.50000000000000 ) );
#193 = AXIS2_PLACEMENT_3D( '', #207, #208, #209 );
#194 = COLOUR_RGB( '', 0.689999997600000, 0.689999997600000, 0.689999997600000 );
#195 = CARTESIAN_POINT( '', ( 0.000000000000000, -5.00000000000000, 7.50000000000000 ) );
#196 = AXIS2_PLACEMENT_3D( '', #210, #211, #212 );
#197 = COLOUR_RGB( '', 0.689999997600000, 0.689999997600000, 0.689999997600000 );
#198 = CARTESIAN_POINT( '', ( 0.000000000000000, -1.20000000000001, 14.0000000000000 ) );
#199 = AXIS2_PLACEMENT_3D( '', #213, #214, #215 );
#200 = COLOUR_RGB( '', 0.689999997600000, 0.689999997600000, 0.689999997600000 );
#201 = CARTESIAN_POINT( '', ( 0.000000000000000, 0.000000000000000, 14.0000000000000 ) );
#202 = AXIS2_PLACEMENT_3D( '', #216, #217, #218 );
#203 = COLOUR_RGB( '', 0.689999997600000, 0.689999997600000, 0.689999997600000 );
#204 = CARTESIAN_POINT( '', ( 0.000000000000000, 0.000000000000000, 0.000000000000000 ) );
#205 = DIRECTION( '', ( 0.000000000000000, -1.00000000000000, 0.000000000000000 ) );
#206 = DIRECTION( '', ( 0.000000000000000, 0.000000000000000, -1.00000000000000 ) );
#207 = CARTESIAN_POINT( '', ( 0.000000000000000, -0.499999999999999, 0.000000000000000 ) );
#208 = DIRECTION( '', ( -0.000000000000000, 1.00000000000000, 0.000000000000000 ) );
#209 = DIRECTION( '', ( 0.000000000000000, 0.000000000000000, 1.00000000000000 ) );
#210 = CARTESIAN_POINT( '', ( 0.000000000000000, -5.00000000000000, 0.000000000000000 ) );
#211 = DIRECTION( '', ( -0.000000000000000, 1.00000000000000, 0.000000000000000 ) );
#212 = DIRECTION( '', ( 0.000000000000000, 0.000000000000000, 1.00000000000000 ) );
#213 = CARTESIAN_POINT( '', ( 0.000000000000000, -1.20000000000001, 0.000000000000000 ) );
#214 = DIRECTION( '', ( -0.000000000000000, 1.00000000000000, 0.000000000000000 ) );
#215 = DIRECTION( '', ( 0.000000000000000, 0.000000000000000, 1.00000000000000 ) );
#216 = CARTESIAN_POINT( '', ( 0.000000000000000, 0.000000000000000, 0.000000000000000 ) );
#217 = DIRECTION( '', ( -0.000000000000000, 1.00000000000000, 0.000000000000000 ) );
#218 = DIRECTION( '', ( 0.000000000000000, 0.000000000000000, 1.00000000000000 ) );
ENDSEC;
END-ISO-10303-21;
