ISO-10303-21;
HEADER;
FILE_DESCRIPTION( ( 'STEP AP214' ), '1' );
FILE_NAME( '//goodhand-server/Shared Folders/GoodHand Data/Kipp CAD/K0729/K0729.0330.stp', '2020-12-09T14:35:29', ( '' ), ( '' ), ' ', 'PARTsolutions', ' ' );
FILE_SCHEMA( ( 'AUTOMOTIVE_DESIGN { 1 0 10303 214 1 1 1 1 }' ) );
ENDSEC;
DATA;
#1 = MECHANICAL_DESIGN_GEOMETRIC_PRESENTATION_REPRESENTATION( ' ', ( #10, #11, #12, #13, #14 ), #6 );
#2 = PRODUCT_DEFINITION_CONTEXT( '', #15, 'design' );
#3 = APPLICATION_PROTOCOL_DEFINITION( 'international standard', 'automotive_design', 2001, #15 );
#4 = PRODUCT_CATEGORY_RELATIONSHIP( 'NONE', 'NONE', #16, #17 );
#5 = SHAPE_DEFINITION_REPRESENTATION( #18, #19 );
#6 =  ( GEOMETRIC_REPRESENTATION_CONTEXT( 3 )GLOBAL_UNCERTAINTY_ASSIGNED_CONTEXT( ( #22 ) )GLOBAL_UNIT_ASSIGNED_CONTEXT( ( #24, #25, #26 ) )REPRESENTATION_CONTEXT( 'NONE', 'WORKSPACE' ) );
#10 = STYLED_ITEM( '', ( #28 ), #29 );
#11 = STYLED_ITEM( '', ( #30 ), #31 );
#12 = STYLED_ITEM( '', ( #32 ), #33 );
#13 = STYLED_ITEM( '', ( #34 ), #35 );
#14 = STYLED_ITEM( '', ( #36 ), #37 );
#15 = APPLICATION_CONTEXT( 'core data for automotive mechanical design processes' );
#16 = PRODUCT_CATEGORY( 'part', 'NONE' );
#17 = PRODUCT_RELATED_PRODUCT_CATEGORY( 'detail', ' ', ( #38 ) );
#18 = PRODUCT_DEFINITION_SHAPE( 'NONE', 'NONE', #39 );
#19 = ADVANCED_BREP_SHAPE_REPRESENTATION( '_K0729.0330', ( #40, #41 ), #6 );
#22 = UNCERTAINTY_MEASURE_WITH_UNIT( LENGTH_MEASURE( 0.00100000000000000 ), #24, '', '' );
#24 =  ( CONVERSION_BASED_UNIT( 'MILLIMETRE', #44 )LENGTH_UNIT(  )NAMED_UNIT( #47 ) );
#25 =  ( NAMED_UNIT( #49 )PLANE_ANGLE_UNIT(  )SI_UNIT( $, .RADIAN. ) );
#26 =  ( NAMED_UNIT( #49 )SI_UNIT( $, .STERADIAN. )SOLID_ANGLE_UNIT(  ) );
#28 = PRESENTATION_STYLE_ASSIGNMENT( ( #55 ) );
#29 = ADVANCED_FACE( '', ( #56, #57 ), #58, .T. );
#30 = PRESENTATION_STYLE_ASSIGNMENT( ( #59 ) );
#31 = ADVANCED_FACE( '', ( #60, #61 ), #62, .T. );
#32 = PRESENTATION_STYLE_ASSIGNMENT( ( #63 ) );
#33 = ADVANCED_FACE( '', ( #64, #65 ), #66, .F. );
#34 = PRESENTATION_STYLE_ASSIGNMENT( ( #67 ) );
#35 = ADVANCED_FACE( '', ( #68, #69 ), #70, .F. );
#36 = PRESENTATION_STYLE_ASSIGNMENT( ( #71 ) );
#37 = ADVANCED_FACE( '', ( #72, #73 ), #74, .T. );
#38 = PRODUCT( '_K0729.0330', '_K0729.0330', 'PART-_K0729.0330-DESC', ( #75 ) );
#39 = PRODUCT_DEFINITION( 'NONE', 'NONE', #76, #2 );
#40 = MANIFOLD_SOLID_BREP( '_K0729.0330', #77 );
#41 = AXIS2_PLACEMENT_3D( '', #78, #79, #80 );
#44 = LENGTH_MEASURE_WITH_UNIT( LENGTH_MEASURE( 1.00000000000000 ), #81 );
#47 = DIMENSIONAL_EXPONENTS( 1.00000000000000, 0.000000000000000, 0.000000000000000, 0.000000000000000, 0.000000000000000, 0.000000000000000, 0.000000000000000 );
#49 = DIMENSIONAL_EXPONENTS( 0.000000000000000, 0.000000000000000, 0.000000000000000, 0.000000000000000, 0.000000000000000, 0.000000000000000, 0.000000000000000 );
#55 = SURFACE_STYLE_USAGE( .BOTH., #82 );
#56 = FACE_BOUND( '', #83, .T. );
#57 = FACE_OUTER_BOUND( '', #84, .T. );
#58 = PLANE( '', #85 );
#59 = SURFACE_STYLE_USAGE( .BOTH., #86 );
#60 = FACE_OUTER_BOUND( '', #87, .T. );
#61 = FACE_BOUND( '', #88, .T. );
#62 = PLANE( '', #89 );
#63 = SURFACE_STYLE_USAGE( .BOTH., #90 );
#64 = FACE_BOUND( '', #91, .T. );
#65 = FACE_OUTER_BOUND( '', #92, .T. );
#66 = CONICAL_SURFACE( '', #93, 24.5000000000000, 1.04719755120000 );
#67 = SURFACE_STYLE_USAGE( .BOTH., #94 );
#68 = FACE_OUTER_BOUND( '', #95, .T. );
#69 = FACE_OUTER_BOUND( '', #96, .T. );
#70 = CYLINDRICAL_SURFACE( '', #97, 17.5000000000000 );
#71 = SURFACE_STYLE_USAGE( .BOTH., #98 );
#72 = FACE_OUTER_BOUND( '', #99, .T. );
#73 = FACE_OUTER_BOUND( '', #100, .T. );
#74 = CYLINDRICAL_SURFACE( '', #101, 34.0000000000000 );
#75 = PRODUCT_CONTEXT( '', #15, 'mechanical' );
#76 = PRODUCT_DEFINITION_FORMATION_WITH_SPECIFIED_SOURCE( ' ', 'NONE', #38, .NOT_KNOWN. );
#77 = CLOSED_SHELL( '', ( #33, #35, #31, #37, #29 ) );
#78 = CARTESIAN_POINT( '', ( 0.000000000000000, 0.000000000000000, 0.000000000000000 ) );
#79 = DIRECTION( '', ( 0.000000000000000, 0.000000000000000, 1.00000000000000 ) );
#80 = DIRECTION( '', ( 1.00000000000000, 0.000000000000000, 0.000000000000000 ) );
#81 =  ( LENGTH_UNIT(  )NAMED_UNIT( #47 )SI_UNIT( .MILLI., .METRE. ) );
#82 = SURFACE_SIDE_STYLE( '', ( #103 ) );
#83 = EDGE_LOOP( '', ( #104 ) );
#84 = EDGE_LOOP( '', ( #105 ) );
#85 = AXIS2_PLACEMENT_3D( '', #106, #107, #108 );
#86 = SURFACE_SIDE_STYLE( '', ( #109 ) );
#87 = EDGE_LOOP( '', ( #110 ) );
#88 = EDGE_LOOP( '', ( #111 ) );
#89 = AXIS2_PLACEMENT_3D( '', #112, #113, #114 );
#90 = SURFACE_SIDE_STYLE( '', ( #115 ) );
#91 = EDGE_LOOP( '', ( #116 ) );
#92 = EDGE_LOOP( '', ( #117 ) );
#93 = AXIS2_PLACEMENT_3D( '', #118, #119, #120 );
#94 = SURFACE_SIDE_STYLE( '', ( #121 ) );
#95 = EDGE_LOOP( '', ( #122 ) );
#96 = EDGE_LOOP( '', ( #123 ) );
#97 = AXIS2_PLACEMENT_3D( '', #124, #125, #126 );
#98 = SURFACE_SIDE_STYLE( '', ( #127 ) );
#99 = EDGE_LOOP( '', ( #128 ) );
#100 = EDGE_LOOP( '', ( #129 ) );
#101 = AXIS2_PLACEMENT_3D( '', #130, #131, #132 );
#103 = SURFACE_STYLE_FILL_AREA( #133 );
#104 = ORIENTED_EDGE( '', *, *, #134, .T. );
#105 = ORIENTED_EDGE( '', *, *, #135, .F. );
#106 = CARTESIAN_POINT( '', ( 34.0000000000000, 12.0000000000000, 0.000000000000000 ) );
#107 = DIRECTION( '', ( 0.000000000000000, 1.00000000000000, 0.000000000000000 ) );
#108 = DIRECTION( '', ( 0.000000000000000, -0.000000000000000, 1.00000000000000 ) );
#109 = SURFACE_STYLE_FILL_AREA( #136 );
#110 = ORIENTED_EDGE( '', *, *, #137, .T. );
#111 = ORIENTED_EDGE( '', *, *, #138, .F. );
#112 = CARTESIAN_POINT( '', ( 17.5000000000000, 0.000000000000000, 0.000000000000000 ) );
#113 = DIRECTION( '', ( 0.000000000000000, -1.00000000000000, -0.000000000000000 ) );
#114 = DIRECTION( '', ( 0.000000000000000, 0.000000000000000, -1.00000000000000 ) );
#115 = SURFACE_STYLE_FILL_AREA( #139 );
#116 = ORIENTED_EDGE( '', *, *, #140, .T. );
#117 = ORIENTED_EDGE( '', *, *, #134, .F. );
#118 = CARTESIAN_POINT( '', ( 0.000000000000000, 12.0000000000000, 0.000000000000000 ) );
#119 = DIRECTION( '', ( -0.000000000000000, 1.00000000000000, 0.000000000000000 ) );
#120 = DIRECTION( '', ( 0.000000000000000, -0.000000000000000, 1.00000000000000 ) );
#121 = SURFACE_STYLE_FILL_AREA( #141 );
#122 = ORIENTED_EDGE( '', *, *, #138, .T. );
#123 = ORIENTED_EDGE( '', *, *, #140, .F. );
#124 = CARTESIAN_POINT( '', ( 0.000000000000000, 0.000000000000000, 0.000000000000000 ) );
#125 = DIRECTION( '', ( -0.000000000000000, 1.00000000000000, 0.000000000000000 ) );
#126 = DIRECTION( '', ( 0.000000000000000, 0.000000000000000, -1.00000000000000 ) );
#127 = SURFACE_STYLE_FILL_AREA( #142 );
#128 = ORIENTED_EDGE( '', *, *, #135, .T. );
#129 = ORIENTED_EDGE( '', *, *, #137, .F. );
#130 = CARTESIAN_POINT( '', ( 0.000000000000000, 0.000000000000000, 0.000000000000000 ) );
#131 = DIRECTION( '', ( -0.000000000000000, 1.00000000000000, 0.000000000000000 ) );
#132 = DIRECTION( '', ( 0.000000000000000, 0.000000000000000, -1.00000000000000 ) );
#133 = FILL_AREA_STYLE( '', ( #143 ) );
#134 = EDGE_CURVE( '', #144, #144, #145, .T. );
#135 = EDGE_CURVE( '', #146, #146, #147, .T. );
#136 = FILL_AREA_STYLE( '', ( #148 ) );
#137 = EDGE_CURVE( '', #149, #149, #150, .T. );
#138 = EDGE_CURVE( '', #151, #151, #152, .T. );
#139 = FILL_AREA_STYLE( '', ( #153 ) );
#140 = EDGE_CURVE( '', #154, #154, #155, .T. );
#141 = FILL_AREA_STYLE( '', ( #156 ) );
#142 = FILL_AREA_STYLE( '', ( #157 ) );
#143 = FILL_AREA_STYLE_COLOUR( '', #158 );
#144 = VERTEX_POINT( '', #159 );
#145 = CIRCLE( '', #160, 24.5000000000000 );
#146 = VERTEX_POINT( '', #161 );
#147 = CIRCLE( '', #162, 34.0000000000000 );
#148 = FILL_AREA_STYLE_COLOUR( '', #163 );
#149 = VERTEX_POINT( '', #164 );
#150 = CIRCLE( '', #165, 34.0000000000000 );
#151 = VERTEX_POINT( '', #166 );
#152 = CIRCLE( '', #167, 17.5000000000000 );
#153 = FILL_AREA_STYLE_COLOUR( '', #168 );
#154 = VERTEX_POINT( '', #169 );
#155 = CIRCLE( '', #170, 17.5000000000000 );
#156 = FILL_AREA_STYLE_COLOUR( '', #171 );
#157 = FILL_AREA_STYLE_COLOUR( '', #172 );
#158 = COLOUR_RGB( '', 0.689999997600000, 0.689999997600000, 0.689999997600000 );
#159 = CARTESIAN_POINT( '', ( 0.000000000000000, 12.0000000000000, -24.5000000000000 ) );
#160 = AXIS2_PLACEMENT_3D( '', #173, #174, #175 );
#161 = CARTESIAN_POINT( '', ( 0.000000000000000, 12.0000000000000, -34.0000000000000 ) );
#162 = AXIS2_PLACEMENT_3D( '', #176, #177, #178 );
#163 = COLOUR_RGB( '', 0.689999997600000, 0.689999997600000, 0.689999997600000 );
#164 = CARTESIAN_POINT( '', ( 0.000000000000000, 0.000000000000000, -34.0000000000000 ) );
#165 = AXIS2_PLACEMENT_3D( '', #179, #180, #181 );
#166 = CARTESIAN_POINT( '', ( 0.000000000000000, 0.000000000000000, -17.5000000000000 ) );
#167 = AXIS2_PLACEMENT_3D( '', #182, #183, #184 );
#168 = COLOUR_RGB( '', 0.689999997600000, 0.689999997600000, 0.689999997600000 );
#169 = CARTESIAN_POINT( '', ( 0.000000000000000, 7.95854811567262, -17.5000000000000 ) );
#170 = AXIS2_PLACEMENT_3D( '', #185, #186, #187 );
#171 = COLOUR_RGB( '', 0.689999997600000, 0.689999997600000, 0.689999997600000 );
#172 = COLOUR_RGB( '', 0.689999997600000, 0.689999997600000, 0.689999997600000 );
#173 = CARTESIAN_POINT( '', ( 0.000000000000000, 12.0000000000000, 0.000000000000000 ) );
#174 = DIRECTION( '', ( 0.000000000000000, -1.00000000000000, -0.000000000000000 ) );
#175 = DIRECTION( '', ( 0.000000000000000, 0.000000000000000, -1.00000000000000 ) );
#176 = CARTESIAN_POINT( '', ( 0.000000000000000, 12.0000000000000, 0.000000000000000 ) );
#177 = DIRECTION( '', ( 0.000000000000000, -1.00000000000000, -0.000000000000000 ) );
#178 = DIRECTION( '', ( 0.000000000000000, 0.000000000000000, -1.00000000000000 ) );
#179 = CARTESIAN_POINT( '', ( 0.000000000000000, 0.000000000000000, 0.000000000000000 ) );
#180 = DIRECTION( '', ( 0.000000000000000, -1.00000000000000, -0.000000000000000 ) );
#181 = DIRECTION( '', ( 0.000000000000000, 0.000000000000000, -1.00000000000000 ) );
#182 = CARTESIAN_POINT( '', ( 0.000000000000000, 0.000000000000000, 0.000000000000000 ) );
#183 = DIRECTION( '', ( 0.000000000000000, -1.00000000000000, -0.000000000000000 ) );
#184 = DIRECTION( '', ( 0.000000000000000, 0.000000000000000, -1.00000000000000 ) );
#185 = CARTESIAN_POINT( '', ( 0.000000000000000, 7.95854811567262, 0.000000000000000 ) );
#186 = DIRECTION( '', ( 0.000000000000000, -1.00000000000000, -0.000000000000000 ) );
#187 = DIRECTION( '', ( 0.000000000000000, 0.000000000000000, -1.00000000000000 ) );
ENDSEC;
END-ISO-10303-21;
