ISO-10303-21;
HEADER;
FILE_DESCRIPTION( ( 'STEP AP214' ), '1' );
FILE_NAME( '//goodhand-server/Shared Folders/GoodHand Data/Kipp CAD/K0729/K0729.0108.stp', '2020-12-09T14:33:47', ( '' ), ( '' ), ' ', 'PARTsolutions', ' ' );
FILE_SCHEMA( ( 'AUTOMOTIVE_DESIGN { 1 0 10303 214 1 1 1 1 }' ) );
ENDSEC;
DATA;
#1 = MECHANICAL_DESIGN_GEOMETRIC_PRESENTATION_REPRESENTATION( ' ', ( #10, #11, #12, #13, #14 ), #6 );
#2 = PRODUCT_DEFINITION_CONTEXT( '', #15, 'design' );
#3 = APPLICATION_PROTOCOL_DEFINITION( 'international standard', 'automotive_design', 2001, #15 );
#4 = PRODUCT_CATEGORY_RELATIONSHIP( 'NONE', 'NONE', #16, #17 );
#5 = SHAPE_DEFINITION_REPRESENTATION( #18, #19 );
#6 =  ( GEOMETRIC_REPRESENTATION_CONTEXT( 3 )GLOBAL_UNCERTAINTY_ASSIGNED_CONTEXT( ( #22 ) )GLOBAL_UNIT_ASSIGNED_CONTEXT( ( #24, #25, #26 ) )REPRESENTATION_CONTEXT( 'NONE', 'WORKSPACE' ) );
#10 = STYLED_ITEM( '', ( #28 ), #29 );
#11 = STYLED_ITEM( '', ( #30 ), #31 );
#12 = STYLED_ITEM( '', ( #32 ), #33 );
#13 = STYLED_ITEM( '', ( #34 ), #35 );
#14 = STYLED_ITEM( '', ( #36 ), #37 );
#15 = APPLICATION_CONTEXT( 'core data for automotive mechanical design processes' );
#16 = PRODUCT_CATEGORY( 'part', 'NONE' );
#17 = PRODUCT_RELATED_PRODUCT_CATEGORY( 'detail', ' ', ( #38 ) );
#18 = PRODUCT_DEFINITION_SHAPE( 'NONE', 'NONE', #39 );
#19 = ADVANCED_BREP_SHAPE_REPRESENTATION( '_K0729.0108', ( #40, #41 ), #6 );
#22 = UNCERTAINTY_MEASURE_WITH_UNIT( LENGTH_MEASURE( 0.00100000000000000 ), #24, '', '' );
#24 =  ( CONVERSION_BASED_UNIT( 'MILLIMETRE', #44 )LENGTH_UNIT(  )NAMED_UNIT( #47 ) );
#25 =  ( NAMED_UNIT( #49 )PLANE_ANGLE_UNIT(  )SI_UNIT( $, .RADIAN. ) );
#26 =  ( NAMED_UNIT( #49 )SI_UNIT( $, .STERADIAN. )SOLID_ANGLE_UNIT(  ) );
#28 = PRESENTATION_STYLE_ASSIGNMENT( ( #55 ) );
#29 = ADVANCED_FACE( '', ( #56, #57 ), #58, .T. );
#30 = PRESENTATION_STYLE_ASSIGNMENT( ( #59 ) );
#31 = ADVANCED_FACE( '', ( #60, #61 ), #62, .F. );
#32 = PRESENTATION_STYLE_ASSIGNMENT( ( #63 ) );
#33 = ADVANCED_FACE( '', ( #64, #65 ), #66, .F. );
#34 = PRESENTATION_STYLE_ASSIGNMENT( ( #67 ) );
#35 = ADVANCED_FACE( '', ( #68, #69 ), #70, .T. );
#36 = PRESENTATION_STYLE_ASSIGNMENT( ( #71 ) );
#37 = ADVANCED_FACE( '', ( #72, #73 ), #74, .F. );
#38 = PRODUCT( '_K0729.0108', '_K0729.0108', 'PART-_K0729.0108-DESC', ( #75 ) );
#39 = PRODUCT_DEFINITION( 'NONE', 'NONE', #76, #2 );
#40 = MANIFOLD_SOLID_BREP( '_K0729.0108', #77 );
#41 = AXIS2_PLACEMENT_3D( '', #78, #79, #80 );
#44 = LENGTH_MEASURE_WITH_UNIT( LENGTH_MEASURE( 1.00000000000000 ), #81 );
#47 = DIMENSIONAL_EXPONENTS( 1.00000000000000, 0.000000000000000, 0.000000000000000, 0.000000000000000, 0.000000000000000, 0.000000000000000, 0.000000000000000 );
#49 = DIMENSIONAL_EXPONENTS( 0.000000000000000, 0.000000000000000, 0.000000000000000, 0.000000000000000, 0.000000000000000, 0.000000000000000, 0.000000000000000 );
#55 = SURFACE_STYLE_USAGE( .BOTH., #82 );
#56 = FACE_OUTER_BOUND( '', #83, .T. );
#57 = FACE_OUTER_BOUND( '', #84, .T. );
#58 = CYLINDRICAL_SURFACE( '', #85, 8.50000000000000 );
#59 = SURFACE_STYLE_USAGE( .BOTH., #86 );
#60 = FACE_OUTER_BOUND( '', #87, .T. );
#61 = FACE_OUTER_BOUND( '', #88, .T. );
#62 = CYLINDRICAL_SURFACE( '', #89, 4.20000000000000 );
#63 = SURFACE_STYLE_USAGE( .BOTH., #90 );
#64 = FACE_BOUND( '', #91, .T. );
#65 = FACE_OUTER_BOUND( '', #92, .T. );
#66 = PLANE( '', #93 );
#67 = SURFACE_STYLE_USAGE( .BOTH., #94 );
#68 = FACE_OUTER_BOUND( '', #95, .T. );
#69 = FACE_OUTER_BOUND( '', #96, .T. );
#70 = ( BOUNDED_SURFACE(  )B_SPLINE_SURFACE( 3, 3, ( ( #99, #100, #101, #102, #103, #104, #105 ), ( #106, #107, #108, #109, #110, #111, #112 ), ( #113, #114, #115, #116, #117, #118, #119 ), ( #120, #121, #122, #123, #124, #125, #126 ) ), .UNSPECIFIED., .F., .T., .F. )B_SPLINE_SURFACE_WITH_KNOTS( ( 4, 4 ), ( 4, 3, 4 ), ( 0.000000000000000, 6.28318530717959 ), ( -1.23789696963744, -1.02696387049278, -0.816030771348109 ), .UNSPECIFIED. )GEOMETRIC_REPRESENTATION_ITEM(  )RATIONAL_B_SPLINE_SURFACE( ( ( 1.00000000000000, 0.333333333333333, 0.333333333333333, 1.00000000000000, 0.333333333333333, 0.333333333333333, 1.00000000000000 ), ( 0.985223983483407, 0.328407994494469, 0.328407994494469, 0.985223983483407, 0.328407994494469, 0.328407994494469, 0.985223983483407 ), ( 0.985223983483407, 0.328407994494469, 0.328407994494469, 0.985223983483407, 0.328407994494469, 0.328407994494469, 0.985223983483407 ), ( 1.00000000000000, 0.333333333333333, 0.333333333333333, 1.00000000000000, 0.333333333333333, 0.333333333333333, 1.00000000000000 ) ) )REPRESENTATION_ITEM( '' )SURFACE(  ) );
#71 = SURFACE_STYLE_USAGE( .BOTH., #132 );
#72 = FACE_OUTER_BOUND( '', #133, .T. );
#73 = FACE_BOUND( '', #134, .T. );
#74 = CONICAL_SURFACE( '', #135, 4.20000000000000, 0.785398163400000 );
#75 = PRODUCT_CONTEXT( '', #15, 'mechanical' );
#76 = PRODUCT_DEFINITION_FORMATION_WITH_SPECIFIED_SOURCE( ' ', 'NONE', #38, .NOT_KNOWN. );
#77 = CLOSED_SHELL( '', ( #37, #31, #35, #29, #33 ) );
#78 = CARTESIAN_POINT( '', ( 0.000000000000000, 0.000000000000000, 0.000000000000000 ) );
#79 = DIRECTION( '', ( 0.000000000000000, 0.000000000000000, 1.00000000000000 ) );
#80 = DIRECTION( '', ( 1.00000000000000, 0.000000000000000, 0.000000000000000 ) );
#81 =  ( LENGTH_UNIT(  )NAMED_UNIT( #47 )SI_UNIT( .MILLI., .METRE. ) );
#82 = SURFACE_SIDE_STYLE( '', ( #137 ) );
#83 = EDGE_LOOP( '', ( #138 ) );
#84 = EDGE_LOOP( '', ( #139 ) );
#85 = AXIS2_PLACEMENT_3D( '', #140, #141, #142 );
#86 = SURFACE_SIDE_STYLE( '', ( #143 ) );
#87 = EDGE_LOOP( '', ( #144 ) );
#88 = EDGE_LOOP( '', ( #145 ) );
#89 = AXIS2_PLACEMENT_3D( '', #146, #147, #148 );
#90 = SURFACE_SIDE_STYLE( '', ( #149 ) );
#91 = EDGE_LOOP( '', ( #150 ) );
#92 = EDGE_LOOP( '', ( #151 ) );
#93 = AXIS2_PLACEMENT_3D( '', #152, #153, #154 );
#94 = SURFACE_SIDE_STYLE( '', ( #155 ) );
#95 = EDGE_LOOP( '', ( #156 ) );
#96 = EDGE_LOOP( '', ( #157 ) );
#99 = CARTESIAN_POINT( '', ( 0.000000000000000, -0.600000000000003, 8.50000000000000 ) );
#100 = CARTESIAN_POINT( '', ( 17.0000000000000, -0.600000000000003, 8.50000000000000 ) );
#101 = CARTESIAN_POINT( '', ( 17.0000000000000, -0.600000000000003, -8.50000000000000 ) );
#102 = CARTESIAN_POINT( '', ( 0.000000000000000, -0.600000000000003, -8.50000000000000 ) );
#103 = CARTESIAN_POINT( '', ( -17.0000000000000, -0.600000000000003, -8.50000000000000 ) );
#104 = CARTESIAN_POINT( '', ( -17.0000000000000, -0.600000000000003, 8.50000000000000 ) );
#105 = CARTESIAN_POINT( '', ( 0.000000000000000, -0.600000000000003, 8.50000000000000 ) );
#106 = CARTESIAN_POINT( '', ( 0.000000000000000, -1.76476894290867, 7.26159245950833 ) );
#107 = CARTESIAN_POINT( '', ( 14.5231849190167, -1.76476894290867, 7.26159245950833 ) );
#108 = CARTESIAN_POINT( '', ( 14.5231849190167, -1.76476894290867, -7.26159245950833 ) );
#109 = CARTESIAN_POINT( '', ( 0.000000000000000, -1.76476894290867, -7.26159245950833 ) );
#110 = CARTESIAN_POINT( '', ( -14.5231849190167, -1.76476894290867, -7.26159245950833 ) );
#111 = CARTESIAN_POINT( '', ( -14.5231849190167, -1.76476894290867, 7.26159245950833 ) );
#112 = CARTESIAN_POINT( '', ( 0.000000000000000, -1.76476894290867, 7.26159245950833 ) );
#113 = CARTESIAN_POINT( '', ( 0.000000000000000, -2.64443354831387, 5.80676253518435 ) );
#114 = CARTESIAN_POINT( '', ( 11.6135250703687, -2.64443354831387, 5.80676253518435 ) );
#115 = CARTESIAN_POINT( '', ( 11.6135250703687, -2.64443354831387, -5.80676253518435 ) );
#116 = CARTESIAN_POINT( '', ( 0.000000000000000, -2.64443354831387, -5.80676253518435 ) );
#117 = CARTESIAN_POINT( '', ( -11.6135250703687, -2.64443354831387, -5.80676253518435 ) );
#118 = CARTESIAN_POINT( '', ( -11.6135250703687, -2.64443354831387, 5.80676253518435 ) );
#119 = CARTESIAN_POINT( '', ( 0.000000000000000, -2.64443354831387, 5.80676253518435 ) );
#120 = CARTESIAN_POINT( '', ( 0.000000000000000, -3.20000000000000, 4.19999999999999 ) );
#121 = CARTESIAN_POINT( '', ( 8.39999999999997, -3.20000000000000, 4.19999999999999 ) );
#122 = CARTESIAN_POINT( '', ( 8.39999999999997, -3.20000000000000, -4.19999999999999 ) );
#123 = CARTESIAN_POINT( '', ( 0.000000000000000, -3.20000000000000, -4.19999999999999 ) );
#124 = CARTESIAN_POINT( '', ( -8.39999999999997, -3.20000000000000, -4.19999999999999 ) );
#125 = CARTESIAN_POINT( '', ( -8.39999999999997, -3.20000000000000, 4.19999999999999 ) );
#126 = CARTESIAN_POINT( '', ( 0.000000000000000, -3.20000000000000, 4.19999999999999 ) );
#132 = SURFACE_SIDE_STYLE( '', ( #158 ) );
#133 = EDGE_LOOP( '', ( #159 ) );
#134 = EDGE_LOOP( '', ( #160 ) );
#135 = AXIS2_PLACEMENT_3D( '', #161, #162, #163 );
#137 = SURFACE_STYLE_FILL_AREA( #164 );
#138 = ORIENTED_EDGE( '', *, *, #165, .F. );
#139 = ORIENTED_EDGE( '', *, *, #166, .T. );
#140 = CARTESIAN_POINT( '', ( 0.000000000000000, 0.000000000000000, 0.000000000000000 ) );
#141 = DIRECTION( '', ( 0.000000000000000, -1.00000000000000, -0.000000000000000 ) );
#142 = DIRECTION( '', ( 0.000000000000000, 0.000000000000000, 1.00000000000000 ) );
#143 = SURFACE_STYLE_FILL_AREA( #167 );
#144 = ORIENTED_EDGE( '', *, *, #168, .T. );
#145 = ORIENTED_EDGE( '', *, *, #169, .F. );
#146 = CARTESIAN_POINT( '', ( 0.000000000000000, 0.000000000000000, 0.000000000000000 ) );
#147 = DIRECTION( '', ( 0.000000000000000, -1.00000000000000, -0.000000000000000 ) );
#148 = DIRECTION( '', ( 0.000000000000000, 0.000000000000000, 1.00000000000000 ) );
#149 = SURFACE_STYLE_FILL_AREA( #170 );
#150 = ORIENTED_EDGE( '', *, *, #171, .F. );
#151 = ORIENTED_EDGE( '', *, *, #165, .T. );
#152 = CARTESIAN_POINT( '', ( -8.50000000000000, 0.000000000000000, 0.000000000000000 ) );
#153 = DIRECTION( '', ( 0.000000000000000, -1.00000000000000, 0.000000000000000 ) );
#154 = DIRECTION( '', ( 0.000000000000000, 0.000000000000000, -1.00000000000000 ) );
#155 = SURFACE_STYLE_FILL_AREA( #172 );
#156 = ORIENTED_EDGE( '', *, *, #169, .T. );
#157 = ORIENTED_EDGE( '', *, *, #166, .F. );
#158 = SURFACE_STYLE_FILL_AREA( #173 );
#159 = ORIENTED_EDGE( '', *, *, #171, .T. );
#160 = ORIENTED_EDGE( '', *, *, #168, .F. );
#161 = CARTESIAN_POINT( '', ( 0.000000000000000, -0.500000000000005, 0.000000000000000 ) );
#162 = DIRECTION( '', ( -0.000000000000000, 1.00000000000000, -0.000000000000000 ) );
#163 = DIRECTION( '', ( 0.000000000000000, 0.000000000000000, 1.00000000000000 ) );
#164 = FILL_AREA_STYLE( '', ( #174 ) );
#165 = EDGE_CURVE( '', #175, #175, #176, .T. );
#166 = EDGE_CURVE( '', #177, #177, #178, .T. );
#167 = FILL_AREA_STYLE( '', ( #179 ) );
#168 = EDGE_CURVE( '', #180, #180, #181, .T. );
#169 = EDGE_CURVE( '', #182, #182, #183, .T. );
#170 = FILL_AREA_STYLE( '', ( #184 ) );
#171 = EDGE_CURVE( '', #185, #185, #186, .F. );
#172 = FILL_AREA_STYLE( '', ( #187 ) );
#173 = FILL_AREA_STYLE( '', ( #188 ) );
#174 = FILL_AREA_STYLE_COLOUR( '', #189 );
#175 = VERTEX_POINT( '', #190 );
#176 = CIRCLE( '', #191, 8.50000000000000 );
#177 = VERTEX_POINT( '', #192 );
#178 = CIRCLE( '', #193, 8.50000000000000 );
#179 = FILL_AREA_STYLE_COLOUR( '', #194 );
#180 = VERTEX_POINT( '', #195 );
#181 = CIRCLE( '', #196, 4.20000000000000 );
#182 = VERTEX_POINT( '', #197 );
#183 = CIRCLE( '', #198, 4.20000000000000 );
#184 = FILL_AREA_STYLE_COLOUR( '', #199 );
#185 = VERTEX_POINT( '', #200 );
#186 = CIRCLE( '', #201, 4.70000000000000 );
#187 = FILL_AREA_STYLE_COLOUR( '', #202 );
#188 = FILL_AREA_STYLE_COLOUR( '', #203 );
#189 = COLOUR_RGB( '', 0.689999997600000, 0.689999997600000, 0.689999997600000 );
#190 = CARTESIAN_POINT( '', ( 0.000000000000000, 0.000000000000000, 8.50000000000000 ) );
#191 = AXIS2_PLACEMENT_3D( '', #204, #205, #206 );
#192 = CARTESIAN_POINT( '', ( 0.000000000000000, -0.600000000000000, 8.50000000000000 ) );
#193 = AXIS2_PLACEMENT_3D( '', #207, #208, #209 );
#194 = COLOUR_RGB( '', 0.689999997600000, 0.689999997600000, 0.689999997600000 );
#195 = CARTESIAN_POINT( '', ( 0.000000000000000, -0.500000000000005, 4.20000000000000 ) );
#196 = AXIS2_PLACEMENT_3D( '', #210, #211, #212 );
#197 = CARTESIAN_POINT( '', ( 0.000000000000000, -3.20000000000000, 4.19999999999999 ) );
#198 = AXIS2_PLACEMENT_3D( '', #213, #214, #215 );
#199 = COLOUR_RGB( '', 0.689999997600000, 0.689999997600000, 0.689999997600000 );
#200 = CARTESIAN_POINT( '', ( 0.000000000000000, 0.000000000000000, -4.70000000000000 ) );
#201 = AXIS2_PLACEMENT_3D( '', #216, #217, #218 );
#202 = COLOUR_RGB( '', 0.689999997600000, 0.689999997600000, 0.689999997600000 );
#203 = COLOUR_RGB( '', 0.689999997600000, 0.689999997600000, 0.689999997600000 );
#204 = CARTESIAN_POINT( '', ( 0.000000000000000, 0.000000000000000, 0.000000000000000 ) );
#205 = DIRECTION( '', ( -0.000000000000000, 1.00000000000000, 0.000000000000000 ) );
#206 = DIRECTION( '', ( 0.000000000000000, 0.000000000000000, 1.00000000000000 ) );
#207 = CARTESIAN_POINT( '', ( 0.000000000000000, -0.600000000000000, 0.000000000000000 ) );
#208 = DIRECTION( '', ( -0.000000000000000, 1.00000000000000, 0.000000000000000 ) );
#209 = DIRECTION( '', ( 0.000000000000000, 0.000000000000000, 1.00000000000000 ) );
#210 = CARTESIAN_POINT( '', ( 0.000000000000000, -0.500000000000005, 0.000000000000000 ) );
#211 = DIRECTION( '', ( -0.000000000000000, 1.00000000000000, 0.000000000000000 ) );
#212 = DIRECTION( '', ( 0.000000000000000, 0.000000000000000, 1.00000000000000 ) );
#213 = CARTESIAN_POINT( '', ( 0.000000000000000, -3.20000000000000, 0.000000000000000 ) );
#214 = DIRECTION( '', ( -0.000000000000000, 1.00000000000000, 0.000000000000000 ) );
#215 = DIRECTION( '', ( 0.000000000000000, 0.000000000000000, 1.00000000000000 ) );
#216 = CARTESIAN_POINT( '', ( 0.000000000000000, 0.000000000000000, 0.000000000000000 ) );
#217 = DIRECTION( '', ( 0.000000000000000, -1.00000000000000, 0.000000000000000 ) );
#218 = DIRECTION( '', ( 0.000000000000000, 0.000000000000000, -1.00000000000000 ) );
ENDSEC;
END-ISO-10303-21;
