ISO-10303-21;
HEADER;
FILE_DESCRIPTION( ( 'STEP AP214' ), '1' );
FILE_NAME( '//goodhand-server/Shared Folders/GoodHand Data/Kipp CAD/K0572/K0572.03002857.stp', '2020-12-09T08:45:48', ( '' ), ( '' ), ' ', 'PARTsolutions', ' ' );
FILE_SCHEMA( ( 'AUTOMOTIVE_DESIGN { 1 0 10303 214 1 1 1 1 }' ) );
ENDSEC;
DATA;
#1 = MECHANICAL_DESIGN_GEOMETRIC_PRESENTATION_REPRESENTATION( ' ', ( #10, #11, #12, #13, #14, #15, #16, #17, #18 ), #6 );
#2 = PRODUCT_DEFINITION_CONTEXT( '', #19, 'design' );
#3 = APPLICATION_PROTOCOL_DEFINITION( 'international standard', 'automotive_design', 2001, #19 );
#4 = PRODUCT_CATEGORY_RELATIONSHIP( 'NONE', 'NONE', #20, #21 );
#5 = SHAPE_DEFINITION_REPRESENTATION( #22, #23 );
#6 =  ( GEOMETRIC_REPRESENTATION_CONTEXT( 3 )GLOBAL_UNCERTAINTY_ASSIGNED_CONTEXT( ( #26 ) )GLOBAL_UNIT_ASSIGNED_CONTEXT( ( #28, #29, #30 ) )REPRESENTATION_CONTEXT( 'NONE', 'WORKSPACE' ) );
#10 = STYLED_ITEM( '', ( #32 ), #33 );
#11 = STYLED_ITEM( '', ( #34 ), #35 );
#12 = STYLED_ITEM( '', ( #36 ), #37 );
#13 = STYLED_ITEM( '', ( #38 ), #39 );
#14 = STYLED_ITEM( '', ( #40 ), #41 );
#15 = STYLED_ITEM( '', ( #42 ), #43 );
#16 = STYLED_ITEM( '', ( #44 ), #45 );
#17 = STYLED_ITEM( '', ( #46 ), #47 );
#18 = STYLED_ITEM( '', ( #48 ), #49 );
#19 = APPLICATION_CONTEXT( 'core data for automotive mechanical design processes' );
#20 = PRODUCT_CATEGORY( 'part', 'NONE' );
#21 = PRODUCT_RELATED_PRODUCT_CATEGORY( 'detail', ' ', ( #50 ) );
#22 = PRODUCT_DEFINITION_SHAPE( 'NONE', 'NONE', #51 );
#23 = ADVANCED_BREP_SHAPE_REPRESENTATION( '_K0572.03002857', ( #52, #53 ), #6 );
#26 = UNCERTAINTY_MEASURE_WITH_UNIT( LENGTH_MEASURE( 0.00100000000000000 ), #28, '', '' );
#28 =  ( CONVERSION_BASED_UNIT( 'MILLIMETRE', #56 )LENGTH_UNIT(  )NAMED_UNIT( #59 ) );
#29 =  ( NAMED_UNIT( #61 )PLANE_ANGLE_UNIT(  )SI_UNIT( $, .RADIAN. ) );
#30 =  ( NAMED_UNIT( #61 )SI_UNIT( $, .STERADIAN. )SOLID_ANGLE_UNIT(  ) );
#32 = PRESENTATION_STYLE_ASSIGNMENT( ( #67 ) );
#33 = ADVANCED_FACE( '', ( #68, #69 ), #70, .T. );
#34 = PRESENTATION_STYLE_ASSIGNMENT( ( #71 ) );
#35 = ADVANCED_FACE( '', ( #72, #73 ), #74, .F. );
#36 = PRESENTATION_STYLE_ASSIGNMENT( ( #75 ) );
#37 = ADVANCED_FACE( '', ( #76, #77 ), #78, .T. );
#38 = PRESENTATION_STYLE_ASSIGNMENT( ( #79 ) );
#39 = ADVANCED_FACE( '', ( #80, #81 ), #82, .T. );
#40 = PRESENTATION_STYLE_ASSIGNMENT( ( #83 ) );
#41 = ADVANCED_FACE( '', ( #84, #85 ), #86, .T. );
#42 = PRESENTATION_STYLE_ASSIGNMENT( ( #87 ) );
#43 = ADVANCED_FACE( '', ( #88, #89 ), #90, .T. );
#44 = PRESENTATION_STYLE_ASSIGNMENT( ( #91 ) );
#45 = ADVANCED_FACE( '', ( #92, #93 ), #94, .F. );
#46 = PRESENTATION_STYLE_ASSIGNMENT( ( #95 ) );
#47 = ADVANCED_FACE( '', ( #96, #97 ), #98, .F. );
#48 = PRESENTATION_STYLE_ASSIGNMENT( ( #99 ) );
#49 = ADVANCED_FACE( '', ( #100 ), #101, .F. );
#50 = PRODUCT( '_K0572.03002857', '_K0572.03002857', 'PART-_K0572.03002857-DESC', ( #102 ) );
#51 = PRODUCT_DEFINITION( 'NONE', 'NONE', #103, #2 );
#52 = MANIFOLD_SOLID_BREP( '_K0572.03002857', #104 );
#53 = AXIS2_PLACEMENT_3D( '', #105, #106, #107 );
#56 = LENGTH_MEASURE_WITH_UNIT( LENGTH_MEASURE( 1.00000000000000 ), #108 );
#59 = DIMENSIONAL_EXPONENTS( 1.00000000000000, 0.000000000000000, 0.000000000000000, 0.000000000000000, 0.000000000000000, 0.000000000000000, 0.000000000000000 );
#61 = DIMENSIONAL_EXPONENTS( 0.000000000000000, 0.000000000000000, 0.000000000000000, 0.000000000000000, 0.000000000000000, 0.000000000000000, 0.000000000000000 );
#67 = SURFACE_STYLE_USAGE( .BOTH., #109 );
#68 = FACE_OUTER_BOUND( '', #110, .T. );
#69 = FACE_OUTER_BOUND( '', #111, .T. );
#70 = TOROIDAL_SURFACE( '', #112, 11.8990021875000, 1.00000000000000 );
#71 = SURFACE_STYLE_USAGE( .BOTH., #113 );
#72 = FACE_BOUND( '', #114, .T. );
#73 = FACE_OUTER_BOUND( '', #115, .T. );
#74 = PLANE( '', #116 );
#75 = SURFACE_STYLE_USAGE( .BOTH., #117 );
#76 = FACE_OUTER_BOUND( '', #118, .T. );
#77 = FACE_OUTER_BOUND( '', #119, .T. );
#78 = CYLINDRICAL_SURFACE( '', #120, 4.00000000000000 );
#79 = SURFACE_STYLE_USAGE( .BOTH., #121 );
#80 = FACE_OUTER_BOUND( '', #122, .T. );
#81 = FACE_OUTER_BOUND( '', #123, .T. );
#82 = TOROIDAL_SURFACE( '', #124, 13.5173899780000, 1.00000000000000 );
#83 = SURFACE_STYLE_USAGE( .BOTH., #125 );
#84 = FACE_BOUND( '', #126, .T. );
#85 = FACE_OUTER_BOUND( '', #127, .T. );
#86 = CONICAL_SURFACE( '', #128, 4.00000000000000, 0.785398163400000 );
#87 = SURFACE_STYLE_USAGE( .BOTH., #129 );
#88 = FACE_OUTER_BOUND( '', #130, .T. );
#89 = FACE_BOUND( '', #131, .T. );
#90 = CONICAL_SURFACE( '', #132, 14.5172361200000, 0.0175420601000000 );
#91 = SURFACE_STYLE_USAGE( .BOTH., #133 );
#92 = FACE_OUTER_BOUND( '', #134, .T. );
#93 = FACE_BOUND( '', #135, .T. );
#94 = ( BOUNDED_SURFACE(  )B_SPLINE_SURFACE( 3, 3, ( ( #138, #139, #140, #141, #142, #143, #144 ), ( #145, #146, #147, #148, #149, #150, #151 ), ( #152, #153, #154, #155, #156, #157, #158 ), ( #159, #160, #161, #162, #163, #164, #165 ) ), .UNSPECIFIED., .F., .T., .F. )B_SPLINE_SURFACE_WITH_KNOTS( ( 4, 4 ), ( 4, 3, 4 ), ( 0.000000000000000, 6.28318530717959 ), ( 0.817788464331778, 1.03034169432258, 1.24289492431337 ), .UNSPECIFIED. )GEOMETRIC_REPRESENTATION_ITEM(  )RATIONAL_B_SPLINE_SURFACE( ( ( 1.00000000000000, 0.333333333333333, 0.333333333333333, 1.00000000000000, 0.333333333333333, 0.333333333333333, 1.00000000000000 ), ( 0.984996987568237, 0.328332329189412, 0.328332329189412, 0.984996987568237, 0.328332329189412, 0.328332329189412, 0.984996987568237 ), ( 0.984996987568237, 0.328332329189412, 0.328332329189412, 0.984996987568237, 0.328332329189412, 0.328332329189412, 0.984996987568237 ), ( 1.00000000000000, 0.333333333333333, 0.333333333333333, 1.00000000000000, 0.333333333333333, 0.333333333333333, 1.00000000000000 ) ) )REPRESENTATION_ITEM( '' )SURFACE(  ) );
#95 = SURFACE_STYLE_USAGE( .BOTH., #171 );
#96 = FACE_OUTER_BOUND( '', #172, .T. );
#97 = FACE_BOUND( '', #173, .T. );
#98 = PLANE( '', #174 );
#99 = SURFACE_STYLE_USAGE( .BOTH., #175 );
#100 = FACE_OUTER_BOUND( '', #176, .T. );
#101 = PLANE( '', #177 );
#102 = PRODUCT_CONTEXT( '', #19, 'mechanical' );
#103 = PRODUCT_DEFINITION_FORMATION_WITH_SPECIFIED_SOURCE( ' ', 'NONE', #50, .NOT_KNOWN. );
#104 = CLOSED_SHELL( '', ( #45, #33, #41, #37, #35, #43, #39, #47, #49 ) );
#105 = CARTESIAN_POINT( '', ( 0.000000000000000, 0.000000000000000, 0.000000000000000 ) );
#106 = DIRECTION( '', ( 0.000000000000000, 0.000000000000000, 1.00000000000000 ) );
#107 = DIRECTION( '', ( 1.00000000000000, 0.000000000000000, 0.000000000000000 ) );
#108 =  ( LENGTH_UNIT(  )NAMED_UNIT( #59 )SI_UNIT( .MILLI., .METRE. ) );
#109 = SURFACE_SIDE_STYLE( '', ( #179 ) );
#110 = EDGE_LOOP( '', ( #180 ) );
#111 = EDGE_LOOP( '', ( #181 ) );
#112 = AXIS2_PLACEMENT_3D( '', #182, #183, #184 );
#113 = SURFACE_SIDE_STYLE( '', ( #185 ) );
#114 = EDGE_LOOP( '', ( #186 ) );
#115 = EDGE_LOOP( '', ( #187 ) );
#116 = AXIS2_PLACEMENT_3D( '', #188, #189, #190 );
#117 = SURFACE_SIDE_STYLE( '', ( #191 ) );
#118 = EDGE_LOOP( '', ( #192 ) );
#119 = EDGE_LOOP( '', ( #193 ) );
#120 = AXIS2_PLACEMENT_3D( '', #194, #195, #196 );
#121 = SURFACE_SIDE_STYLE( '', ( #197 ) );
#122 = EDGE_LOOP( '', ( #198 ) );
#123 = EDGE_LOOP( '', ( #199 ) );
#124 = AXIS2_PLACEMENT_3D( '', #200, #201, #202 );
#125 = SURFACE_SIDE_STYLE( '', ( #203 ) );
#126 = EDGE_LOOP( '', ( #204 ) );
#127 = EDGE_LOOP( '', ( #205 ) );
#128 = AXIS2_PLACEMENT_3D( '', #206, #207, #208 );
#129 = SURFACE_SIDE_STYLE( '', ( #209 ) );
#130 = EDGE_LOOP( '', ( #210 ) );
#131 = EDGE_LOOP( '', ( #211 ) );
#132 = AXIS2_PLACEMENT_3D( '', #212, #213, #214 );
#133 = SURFACE_SIDE_STYLE( '', ( #215 ) );
#134 = EDGE_LOOP( '', ( #216 ) );
#135 = VERTEX_LOOP( '', #217 );
#138 = CARTESIAN_POINT( '', ( 0.000000000000000, 21.5000000000000, -1.56125112837913E-14 ) );
#139 = CARTESIAN_POINT( '', ( 3.12250225675825E-14, 21.5000000000000, -1.56125112837913E-14 ) );
#140 = CARTESIAN_POINT( '', ( 3.12250225675825E-14, 21.5000000000000, 1.56125112837913E-14 ) );
#141 = CARTESIAN_POINT( '', ( 0.000000000000000, 21.5000000000000, 1.56125112837913E-14 ) );
#142 = CARTESIAN_POINT( '', ( -3.12250225675825E-14, 21.5000000000000, 1.56125112837913E-14 ) );
#143 = CARTESIAN_POINT( '', ( -3.12250225675825E-14, 21.5000000000000, -1.56125112837913E-14 ) );
#144 = CARTESIAN_POINT( '', ( 0.000000000000000, 21.5000000000000, -1.56125112837913E-14 ) );
#145 = CARTESIAN_POINT( '', ( 0.000000000000000, 22.9254790133921, -4.19034551358409 ) );
#146 = CARTESIAN_POINT( '', ( 8.38069102716819, 22.9254790133921, -4.19034551358409 ) );
#147 = CARTESIAN_POINT( '', ( 8.38069102716819, 22.9254790133921, 4.19034551358409 ) );
#148 = CARTESIAN_POINT( '', ( 0.000000000000000, 22.9254790133921, 4.19034551358409 ) );
#149 = CARTESIAN_POINT( '', ( -8.38069102716819, 22.9254790133921, 4.19034551358409 ) );
#150 = CARTESIAN_POINT( '', ( -8.38069102716819, 22.9254790133921, -4.19034551358409 ) );
#151 = CARTESIAN_POINT( '', ( 0.000000000000000, 22.9254790133921, -4.19034551358409 ) );
#152 = CARTESIAN_POINT( '', ( 0.000000000000000, 25.2028583256751, -7.98567546087732 ) );
#153 = CARTESIAN_POINT( '', ( 15.9713509217546, 25.2028583256751, -7.98567546087732 ) );
#154 = CARTESIAN_POINT( '', ( 15.9713509217546, 25.2028583256751, 7.98567546087732 ) );
#155 = CARTESIAN_POINT( '', ( 0.000000000000000, 25.2028583256751, 7.98567546087732 ) );
#156 = CARTESIAN_POINT( '', ( -15.9713509217546, 25.2028583256751, 7.98567546087732 ) );
#157 = CARTESIAN_POINT( '', ( -15.9713509217546, 25.2028583256751, -7.98567546087732 ) );
#158 = CARTESIAN_POINT( '', ( 0.000000000000000, 25.2028583256751, -7.98567546087732 ) );
#159 = CARTESIAN_POINT( '', ( 0.000000000000000, 28.2296352864470, -11.2151656947340 ) );
#160 = CARTESIAN_POINT( '', ( 22.4303313894681, 28.2296352864470, -11.2151656947340 ) );
#161 = CARTESIAN_POINT( '', ( 22.4303313894681, 28.2296352864470, 11.2151656947340 ) );
#162 = CARTESIAN_POINT( '', ( 0.000000000000000, 28.2296352864470, 11.2151656947340 ) );
#163 = CARTESIAN_POINT( '', ( -22.4303313894681, 28.2296352864470, 11.2151656947340 ) );
#164 = CARTESIAN_POINT( '', ( -22.4303313894681, 28.2296352864470, -11.2151656947340 ) );
#165 = CARTESIAN_POINT( '', ( 0.000000000000000, 28.2296352864470, -11.2151656947340 ) );
#171 = SURFACE_SIDE_STYLE( '', ( #218 ) );
#172 = EDGE_LOOP( '', ( #219 ) );
#173 = EDGE_LOOP( '', ( #220 ) );
#174 = AXIS2_PLACEMENT_3D( '', #221, #222, #223 );
#175 = SURFACE_SIDE_STYLE( '', ( #224 ) );
#176 = EDGE_LOOP( '', ( #225 ) );
#177 = AXIS2_PLACEMENT_3D( '', #226, #227, #228 );
#179 = SURFACE_STYLE_FILL_AREA( #229 );
#180 = ORIENTED_EDGE( '', *, *, #230, .T. );
#181 = ORIENTED_EDGE( '', *, *, #231, .F. );
#182 = CARTESIAN_POINT( '', ( 0.000000000000000, 27.5000000000000, 0.000000000000000 ) );
#183 = DIRECTION( '', ( 0.000000000000000, -1.00000000000000, -0.000000000000000 ) );
#184 = DIRECTION( '', ( 0.000000000000000, 0.000000000000000, -1.00000000000000 ) );
#185 = SURFACE_STYLE_FILL_AREA( #232 );
#186 = ORIENTED_EDGE( '', *, *, #233, .F. );
#187 = ORIENTED_EDGE( '', *, *, #234, .T. );
#188 = CARTESIAN_POINT( '', ( 15.0000000000000, 0.000000000000000, 0.000000000000000 ) );
#189 = DIRECTION( '', ( 0.000000000000000, 1.00000000000000, 0.000000000000000 ) );
#190 = DIRECTION( '', ( 0.000000000000000, -0.000000000000000, 1.00000000000000 ) );
#191 = SURFACE_STYLE_FILL_AREA( #235 );
#192 = ORIENTED_EDGE( '', *, *, #236, .F. );
#193 = ORIENTED_EDGE( '', *, *, #233, .T. );
#194 = CARTESIAN_POINT( '', ( 0.000000000000000, -23.0000000000000, 0.000000000000000 ) );
#195 = DIRECTION( '', ( -0.000000000000000, 1.00000000000000, 0.000000000000000 ) );
#196 = DIRECTION( '', ( 0.000000000000000, 0.000000000000000, -1.00000000000000 ) );
#197 = SURFACE_STYLE_FILL_AREA( #237 );
#198 = ORIENTED_EDGE( '', *, *, #238, .T. );
#199 = ORIENTED_EDGE( '', *, *, #239, .F. );
#200 = CARTESIAN_POINT( '', ( 0.000000000000000, 27.5000000000000, 0.000000000000000 ) );
#201 = DIRECTION( '', ( 0.000000000000000, -1.00000000000000, -0.000000000000000 ) );
#202 = DIRECTION( '', ( 0.000000000000000, 0.000000000000000, -1.00000000000000 ) );
#203 = SURFACE_STYLE_FILL_AREA( #240 );
#204 = ORIENTED_EDGE( '', *, *, #241, .F. );
#205 = ORIENTED_EDGE( '', *, *, #236, .T. );
#206 = CARTESIAN_POINT( '', ( 0.000000000000000, -22.2330000000000, 0.000000000000000 ) );
#207 = DIRECTION( '', ( -0.000000000000000, 1.00000000000000, 0.000000000000000 ) );
#208 = DIRECTION( '', ( 0.000000000000000, -0.000000000000000, 1.00000000000000 ) );
#209 = SURFACE_STYLE_FILL_AREA( #242 );
#210 = ORIENTED_EDGE( '', *, *, #234, .F. );
#211 = ORIENTED_EDGE( '', *, *, #239, .T. );
#212 = CARTESIAN_POINT( '', ( 0.000000000000000, 27.5175411603861, 0.000000000000000 ) );
#213 = DIRECTION( '', ( -0.000000000000000, -1.00000000000000, -0.000000000000000 ) );
#214 = DIRECTION( '', ( 0.000000000000000, 0.000000000000000, -1.00000000000000 ) );
#215 = SURFACE_STYLE_FILL_AREA( #243 );
#216 = ORIENTED_EDGE( '', *, *, #230, .F. );
#217 = VERTEX_POINT( '', #244 );
#218 = SURFACE_STYLE_FILL_AREA( #245 );
#219 = ORIENTED_EDGE( '', *, *, #238, .F. );
#220 = ORIENTED_EDGE( '', *, *, #231, .T. );
#221 = CARTESIAN_POINT( '', ( 11.8990021874509, 28.5000000000000, 0.000000000000000 ) );
#222 = DIRECTION( '', ( 0.000000000000000, -1.00000000000000, -0.000000000000000 ) );
#223 = DIRECTION( '', ( 0.000000000000000, 0.000000000000000, -1.00000000000000 ) );
#224 = SURFACE_STYLE_FILL_AREA( #246 );
#225 = ORIENTED_EDGE( '', *, *, #241, .T. );
#226 = CARTESIAN_POINT( '', ( 3.23300000000000, -23.0000000000000, 0.000000000000000 ) );
#227 = DIRECTION( '', ( 0.000000000000000, 1.00000000000000, 0.000000000000000 ) );
#228 = DIRECTION( '', ( 0.000000000000000, -0.000000000000000, 1.00000000000000 ) );
#229 = FILL_AREA_STYLE( '', ( #247 ) );
#230 = EDGE_CURVE( '', #248, #248, #249, .T. );
#231 = EDGE_CURVE( '', #250, #250, #251, .T. );
#232 = FILL_AREA_STYLE( '', ( #252 ) );
#233 = EDGE_CURVE( '', #253, #253, #254, .T. );
#234 = EDGE_CURVE( '', #255, #255, #256, .T. );
#235 = FILL_AREA_STYLE( '', ( #257 ) );
#236 = EDGE_CURVE( '', #258, #258, #259, .T. );
#237 = FILL_AREA_STYLE( '', ( #260 ) );
#238 = EDGE_CURVE( '', #261, #261, #262, .T. );
#239 = EDGE_CURVE( '', #263, #263, #264, .T. );
#240 = FILL_AREA_STYLE( '', ( #265 ) );
#241 = EDGE_CURVE( '', #266, #266, #267, .T. );
#242 = FILL_AREA_STYLE( '', ( #268 ) );
#243 = FILL_AREA_STYLE( '', ( #269 ) );
#244 = CARTESIAN_POINT( '', ( -2.25514051876985E-14, 21.5000000000000, 0.000000000000000 ) );
#245 = FILL_AREA_STYLE( '', ( #270 ) );
#246 = FILL_AREA_STYLE( '', ( #271 ) );
#247 = FILL_AREA_STYLE_COLOUR( '', #272 );
#248 = VERTEX_POINT( '', #273 );
#249 = CIRCLE( '', #274, 11.2151656947000 );
#250 = VERTEX_POINT( '', #275 );
#251 = CIRCLE( '', #276, 11.8990021875000 );
#252 = FILL_AREA_STYLE_COLOUR( '', #277 );
#253 = VERTEX_POINT( '', #278 );
#254 = CIRCLE( '', #279, 4.00000000000000 );
#255 = VERTEX_POINT( '', #280 );
#256 = CIRCLE( '', #281, 15.0000000000000 );
#257 = FILL_AREA_STYLE_COLOUR( '', #282 );
#258 = VERTEX_POINT( '', #283 );
#259 = CIRCLE( '', #284, 4.00000000000000 );
#260 = FILL_AREA_STYLE_COLOUR( '', #285 );
#261 = VERTEX_POINT( '', #286 );
#262 = CIRCLE( '', #287, 13.5173899780000 );
#263 = VERTEX_POINT( '', #288 );
#264 = CIRCLE( '', #289, 14.5172361200000 );
#265 = FILL_AREA_STYLE_COLOUR( '', #290 );
#266 = VERTEX_POINT( '', #291 );
#267 = CIRCLE( '', #292, 3.23300000000000 );
#268 = FILL_AREA_STYLE_COLOUR( '', #293 );
#269 = FILL_AREA_STYLE_COLOUR( '', #294 );
#270 = FILL_AREA_STYLE_COLOUR( '', #295 );
#271 = FILL_AREA_STYLE_COLOUR( '', #296 );
#272 = COLOUR_RGB( '', 0.689999997600000, 0.689999997600000, 0.689999997600000 );
#273 = CARTESIAN_POINT( '', ( 0.000000000000000, 28.2296352864470, -11.2151656947340 ) );
#274 = AXIS2_PLACEMENT_3D( '', #297, #298, #299 );
#275 = CARTESIAN_POINT( '', ( 0.000000000000000, 28.5000000000000, -11.8990021874509 ) );
#276 = AXIS2_PLACEMENT_3D( '', #300, #301, #302 );
#277 = COLOUR_RGB( '', 0.689999997600000, 0.689999997600000, 0.689999997600000 );
#278 = CARTESIAN_POINT( '', ( 0.000000000000000, 0.000000000000000, -4.00000000000000 ) );
#279 = AXIS2_PLACEMENT_3D( '', #303, #304, #305 );
#280 = CARTESIAN_POINT( '', ( 0.000000000000000, 0.000000000000000, -15.0000000000000 ) );
#281 = AXIS2_PLACEMENT_3D( '', #306, #307, #308 );
#282 = COLOUR_RGB( '', 0.689999997600000, 0.689999997600000, 0.689999997600000 );
#283 = CARTESIAN_POINT( '', ( 0.000000000000000, -22.2330000000000, -4.00000000000000 ) );
#284 = AXIS2_PLACEMENT_3D( '', #309, #310, #311 );
#285 = COLOUR_RGB( '', 0.689999997600000, 0.689999997600000, 0.689999997600000 );
#286 = CARTESIAN_POINT( '', ( 0.000000000000000, 28.5000000000000, -13.5173899779832 ) );
#287 = AXIS2_PLACEMENT_3D( '', #312, #313, #314 );
#288 = CARTESIAN_POINT( '', ( 0.000000000000000, 27.5175411603861, -14.5172361199932 ) );
#289 = AXIS2_PLACEMENT_3D( '', #315, #316, #317 );
#290 = COLOUR_RGB( '', 0.689999997600000, 0.689999997600000, 0.689999997600000 );
#291 = CARTESIAN_POINT( '', ( 0.000000000000000, -23.0000000000000, -3.23300000000000 ) );
#292 = AXIS2_PLACEMENT_3D( '', #318, #319, #320 );
#293 = COLOUR_RGB( '', 0.689999997600000, 0.689999997600000, 0.689999997600000 );
#294 = COLOUR_RGB( '', 0.689999997600000, 0.689999997600000, 0.689999997600000 );
#295 = COLOUR_RGB( '', 0.689999997600000, 0.689999997600000, 0.689999997600000 );
#296 = COLOUR_RGB( '', 0.689999997600000, 0.689999997600000, 0.689999997600000 );
#297 = CARTESIAN_POINT( '', ( 0.000000000000000, 28.2296352864470, 0.000000000000000 ) );
#298 = DIRECTION( '', ( 0.000000000000000, -1.00000000000000, -0.000000000000000 ) );
#299 = DIRECTION( '', ( 0.000000000000000, 0.000000000000000, -1.00000000000000 ) );
#300 = CARTESIAN_POINT( '', ( 0.000000000000000, 28.5000000000000, 0.000000000000000 ) );
#301 = DIRECTION( '', ( 0.000000000000000, -1.00000000000000, -0.000000000000000 ) );
#302 = DIRECTION( '', ( 0.000000000000000, 0.000000000000000, -1.00000000000000 ) );
#303 = CARTESIAN_POINT( '', ( 0.000000000000000, 0.000000000000000, 0.000000000000000 ) );
#304 = DIRECTION( '', ( 0.000000000000000, -1.00000000000000, -0.000000000000000 ) );
#305 = DIRECTION( '', ( 0.000000000000000, 0.000000000000000, -1.00000000000000 ) );
#306 = CARTESIAN_POINT( '', ( 0.000000000000000, 0.000000000000000, 0.000000000000000 ) );
#307 = DIRECTION( '', ( 0.000000000000000, -1.00000000000000, -0.000000000000000 ) );
#308 = DIRECTION( '', ( 0.000000000000000, 0.000000000000000, -1.00000000000000 ) );
#309 = CARTESIAN_POINT( '', ( 0.000000000000000, -22.2330000000000, 0.000000000000000 ) );
#310 = DIRECTION( '', ( 0.000000000000000, -1.00000000000000, -0.000000000000000 ) );
#311 = DIRECTION( '', ( 0.000000000000000, 0.000000000000000, -1.00000000000000 ) );
#312 = CARTESIAN_POINT( '', ( 0.000000000000000, 28.5000000000000, 0.000000000000000 ) );
#313 = DIRECTION( '', ( 0.000000000000000, -1.00000000000000, -0.000000000000000 ) );
#314 = DIRECTION( '', ( 0.000000000000000, 0.000000000000000, -1.00000000000000 ) );
#315 = CARTESIAN_POINT( '', ( 0.000000000000000, 27.5175411603861, 0.000000000000000 ) );
#316 = DIRECTION( '', ( 0.000000000000000, -1.00000000000000, -0.000000000000000 ) );
#317 = DIRECTION( '', ( 0.000000000000000, 0.000000000000000, -1.00000000000000 ) );
#318 = CARTESIAN_POINT( '', ( 0.000000000000000, -23.0000000000000, 0.000000000000000 ) );
#319 = DIRECTION( '', ( 0.000000000000000, -1.00000000000000, -0.000000000000000 ) );
#320 = DIRECTION( '', ( 0.000000000000000, 0.000000000000000, -1.00000000000000 ) );
ENDSEC;
END-ISO-10303-21;
