ISO-10303-21;
HEADER;
FILE_DESCRIPTION( ( 'STEP AP214' ), '1' );
FILE_NAME( '//goodhand-server/Shared Folders/GoodHand Data/Kipp CAD/K0424/K0425.21201.stp', '2020-12-07T14:48:17', ( '' ), ( '' ), ' ', 'PARTsolutions', ' ' );
FILE_SCHEMA( ( 'AUTOMOTIVE_DESIGN { 1 0 10303 214 1 1 1 1 }' ) );
ENDSEC;
DATA;
#1 = MECHANICAL_DESIGN_GEOMETRIC_PRESENTATION_REPRESENTATION( ' ', ( #10, #11, #12, #13, #14, #15, #16, #17, #18, #19, #20, #21, #22 ), #6 );
#2 = PRODUCT_DEFINITION_CONTEXT( '', #23, 'design' );
#3 = APPLICATION_PROTOCOL_DEFINITION( 'international standard', 'automotive_design', 2001, #23 );
#4 = PRODUCT_CATEGORY_RELATIONSHIP( 'NONE', 'NONE', #24, #25 );
#5 = SHAPE_DEFINITION_REPRESENTATION( #26, #27 );
#6 =  ( GEOMETRIC_REPRESENTATION_CONTEXT( 3 )GLOBAL_UNCERTAINTY_ASSIGNED_CONTEXT( ( #30 ) )GLOBAL_UNIT_ASSIGNED_CONTEXT( ( #32, #33, #34 ) )REPRESENTATION_CONTEXT( 'NONE', 'WORKSPACE' ) );
#10 = STYLED_ITEM( '', ( #36 ), #37 );
#11 = STYLED_ITEM( '', ( #38 ), #39 );
#12 = STYLED_ITEM( '', ( #40 ), #41 );
#13 = STYLED_ITEM( '', ( #42 ), #43 );
#14 = STYLED_ITEM( '', ( #44 ), #45 );
#15 = STYLED_ITEM( '', ( #46 ), #47 );
#16 = STYLED_ITEM( '', ( #48 ), #49 );
#17 = STYLED_ITEM( '', ( #50 ), #51 );
#18 = STYLED_ITEM( '', ( #52 ), #53 );
#19 = STYLED_ITEM( '', ( #54 ), #55 );
#20 = STYLED_ITEM( '', ( #56 ), #57 );
#21 = STYLED_ITEM( '', ( #58 ), #59 );
#22 = STYLED_ITEM( '', ( #60 ), #61 );
#23 = APPLICATION_CONTEXT( 'core data for automotive mechanical design processes' );
#24 = PRODUCT_CATEGORY( 'part', 'NONE' );
#25 = PRODUCT_RELATED_PRODUCT_CATEGORY( 'detail', ' ', ( #62 ) );
#26 = PRODUCT_DEFINITION_SHAPE( 'NONE', 'NONE', #63 );
#27 = ADVANCED_BREP_SHAPE_REPRESENTATION( '_K0425.21201', ( #64, #65 ), #6 );
#30 = UNCERTAINTY_MEASURE_WITH_UNIT( LENGTH_MEASURE( 0.00100000000000000 ), #32, '', '' );
#32 =  ( CONVERSION_BASED_UNIT( 'MILLIMETRE', #68 )LENGTH_UNIT(  )NAMED_UNIT( #71 ) );
#33 =  ( NAMED_UNIT( #73 )PLANE_ANGLE_UNIT(  )SI_UNIT( $, .RADIAN. ) );
#34 =  ( NAMED_UNIT( #73 )SI_UNIT( $, .STERADIAN. )SOLID_ANGLE_UNIT(  ) );
#36 = PRESENTATION_STYLE_ASSIGNMENT( ( #79 ) );
#37 = ADVANCED_FACE( '', ( #80 ), #81, .T. );
#38 = PRESENTATION_STYLE_ASSIGNMENT( ( #82 ) );
#39 = ADVANCED_FACE( '', ( #83, #84 ), #85, .F. );
#40 = PRESENTATION_STYLE_ASSIGNMENT( ( #86 ) );
#41 = ADVANCED_FACE( '', ( #87, #88 ), #89, .F. );
#42 = PRESENTATION_STYLE_ASSIGNMENT( ( #90 ) );
#43 = ADVANCED_FACE( '', ( #91, #92 ), #93, .T. );
#44 = PRESENTATION_STYLE_ASSIGNMENT( ( #94 ) );
#45 = ADVANCED_FACE( '', ( #95, #96 ), #97, .T. );
#46 = PRESENTATION_STYLE_ASSIGNMENT( ( #98 ) );
#47 = ADVANCED_FACE( '', ( #99, #100 ), #101, .F. );
#48 = PRESENTATION_STYLE_ASSIGNMENT( ( #102 ) );
#49 = ADVANCED_FACE( '', ( #103, #104 ), #105, .T. );
#50 = PRESENTATION_STYLE_ASSIGNMENT( ( #106 ) );
#51 = ADVANCED_FACE( '', ( #107, #108 ), #109, .F. );
#52 = PRESENTATION_STYLE_ASSIGNMENT( ( #110 ) );
#53 = ADVANCED_FACE( '', ( #111, #112 ), #113, .T. );
#54 = PRESENTATION_STYLE_ASSIGNMENT( ( #114 ) );
#55 = ADVANCED_FACE( '', ( #115 ), #116, .T. );
#56 = PRESENTATION_STYLE_ASSIGNMENT( ( #117 ) );
#57 = ADVANCED_FACE( '', ( #118, #119 ), #120, .T. );
#58 = PRESENTATION_STYLE_ASSIGNMENT( ( #121 ) );
#59 = ADVANCED_FACE( '', ( #122, #123 ), #124, .F. );
#60 = PRESENTATION_STYLE_ASSIGNMENT( ( #125 ) );
#61 = ADVANCED_FACE( '', ( #126, #127 ), #128, .F. );
#62 = PRODUCT( '_K0425.21201', '_K0425.21201', 'PART-_K0425.21201-DESC', ( #129 ) );
#63 = PRODUCT_DEFINITION( 'NONE', 'NONE', #130, #2 );
#64 = MANIFOLD_SOLID_BREP( '_K0425.21201', #131 );
#65 = AXIS2_PLACEMENT_3D( '', #132, #133, #134 );
#68 = LENGTH_MEASURE_WITH_UNIT( LENGTH_MEASURE( 1.00000000000000 ), #135 );
#71 = DIMENSIONAL_EXPONENTS( 1.00000000000000, 0.000000000000000, 0.000000000000000, 0.000000000000000, 0.000000000000000, 0.000000000000000, 0.000000000000000 );
#73 = DIMENSIONAL_EXPONENTS( 0.000000000000000, 0.000000000000000, 0.000000000000000, 0.000000000000000, 0.000000000000000, 0.000000000000000, 0.000000000000000 );
#79 = SURFACE_STYLE_USAGE( .BOTH., #136 );
#80 = FACE_OUTER_BOUND( '', #137, .T. );
#81 = PLANE( '', #138 );
#82 = SURFACE_STYLE_USAGE( .BOTH., #139 );
#83 = FACE_BOUND( '', #140, .T. );
#84 = FACE_OUTER_BOUND( '', #141, .T. );
#85 = PLANE( '', #142 );
#86 = SURFACE_STYLE_USAGE( .BOTH., #143 );
#87 = FACE_OUTER_BOUND( '', #144, .T. );
#88 = FACE_BOUND( '', #145, .T. );
#89 = CONICAL_SURFACE( '', #146, 6.50000000000000, 0.0831412319000000 );
#90 = SURFACE_STYLE_USAGE( .BOTH., #147 );
#91 = FACE_OUTER_BOUND( '', #148, .T. );
#92 = FACE_BOUND( '', #149, .T. );
#93 = CONICAL_SURFACE( '', #150, 7.00000000000000, 1.20260243210000 );
#94 = SURFACE_STYLE_USAGE( .BOTH., #151 );
#95 = FACE_OUTER_BOUND( '', #152, .T. );
#96 = FACE_OUTER_BOUND( '', #153, .T. );
#97 = CYLINDRICAL_SURFACE( '', #154, 60.0000000000000 );
#98 = SURFACE_STYLE_USAGE( .BOTH., #155 );
#99 = FACE_OUTER_BOUND( '', #156, .T. );
#100 = FACE_BOUND( '', #157, .T. );
#101 = CONICAL_SURFACE( '', #158, 9.59210526320000, 0.156601877000000 );
#102 = SURFACE_STYLE_USAGE( .BOTH., #159 );
#103 = FACE_OUTER_BOUND( '', #160, .T. );
#104 = FACE_OUTER_BOUND( '', #161, .T. );
#105 = TOROIDAL_SURFACE( '', #162, 56.0000000000000, 4.00000000000000 );
#106 = SURFACE_STYLE_USAGE( .BOTH., #163 );
#107 = FACE_BOUND( '', #164, .T. );
#108 = FACE_OUTER_BOUND( '', #165, .T. );
#109 = PLANE( '', #166 );
#110 = SURFACE_STYLE_USAGE( .BOTH., #167 );
#111 = FACE_OUTER_BOUND( '', #168, .T. );
#112 = FACE_OUTER_BOUND( '', #169, .T. );
#113 = ( BOUNDED_SURFACE(  )B_SPLINE_SURFACE( 3, 3, ( ( #172, #173, #174, #175, #176, #177, #178 ), ( #179, #180, #181, #182, #183, #184, #185 ), ( #186, #187, #188, #189, #190, #191, #192 ), ( #193, #194, #195, #196, #197, #198, #199 ) ), .UNSPECIFIED., .F., .T., .F. )B_SPLINE_SURFACE_WITH_KNOTS( ( 4, 4 ), ( 4, 3, 4 ), ( 0.000000000000000, 6.28318530717959 ), ( -1.54862254226614, -1.45549884711251, -1.36237515195888 ), .UNSPECIFIED. )GEOMETRIC_REPRESENTATION_ITEM(  )RATIONAL_B_SPLINE_SURFACE( ( ( 1.00000000000000, 0.333333333333333, 0.333333333333333, 1.00000000000000, 0.333333333333333, 0.333333333333333, 1.00000000000000 ), ( 0.997111414195875, 0.332370471398625, 0.332370471398625, 0.997111414195875, 0.332370471398625, 0.332370471398625, 0.997111414195875 ), ( 0.997111414195875, 0.332370471398625, 0.332370471398625, 0.997111414195875, 0.332370471398625, 0.332370471398625, 0.997111414195875 ), ( 1.00000000000000, 0.333333333333333, 0.333333333333333, 1.00000000000000, 0.333333333333333, 0.333333333333333, 1.00000000000000 ) ) )REPRESENTATION_ITEM( '' )SURFACE(  ) );
#114 = SURFACE_STYLE_USAGE( .BOTH., #205 );
#115 = FACE_OUTER_BOUND( '', #206, .T. );
#116 = PLANE( '', #207 );
#117 = SURFACE_STYLE_USAGE( .BOTH., #208 );
#118 = FACE_OUTER_BOUND( '', #209, .T. );
#119 = FACE_OUTER_BOUND( '', #210, .T. );
#120 = CYLINDRICAL_SURFACE( '', #211, 52.8000000000000 );
#121 = SURFACE_STYLE_USAGE( .BOTH., #212 );
#122 = FACE_OUTER_BOUND( '', #213, .T. );
#123 = FACE_OUTER_BOUND( '', #214, .T. );
#124 = CYLINDRICAL_SURFACE( '', #215, 4.50000000000000 );
#125 = SURFACE_STYLE_USAGE( .BOTH., #216 );
#126 = FACE_BOUND( '', #217, .T. );
#127 = FACE_OUTER_BOUND( '', #218, .T. );
#128 = CONICAL_SURFACE( '', #219, 11.0000000000000, 1.06369782240000 );
#129 = PRODUCT_CONTEXT( '', #23, 'mechanical' );
#130 = PRODUCT_DEFINITION_FORMATION_WITH_SPECIFIED_SOURCE( ' ', 'NONE', #62, .NOT_KNOWN. );
#131 = CLOSED_SHELL( '', ( #55, #47, #53, #49, #45, #51, #57, #39, #37, #59, #61, #41, #43 ) );
#132 = CARTESIAN_POINT( '', ( 0.000000000000000, 0.000000000000000, 0.000000000000000 ) );
#133 = DIRECTION( '', ( 0.000000000000000, 0.000000000000000, 1.00000000000000 ) );
#134 = DIRECTION( '', ( 1.00000000000000, 0.000000000000000, 0.000000000000000 ) );
#135 =  ( LENGTH_UNIT(  )NAMED_UNIT( #71 )SI_UNIT( .MILLI., .METRE. ) );
#136 = SURFACE_SIDE_STYLE( '', ( #221 ) );
#137 = EDGE_LOOP( '', ( #222 ) );
#138 = AXIS2_PLACEMENT_3D( '', #223, #224, #225 );
#139 = SURFACE_SIDE_STYLE( '', ( #226 ) );
#140 = EDGE_LOOP( '', ( #227 ) );
#141 = EDGE_LOOP( '', ( #228 ) );
#142 = AXIS2_PLACEMENT_3D( '', #229, #230, #231 );
#143 = SURFACE_SIDE_STYLE( '', ( #232 ) );
#144 = EDGE_LOOP( '', ( #233 ) );
#145 = EDGE_LOOP( '', ( #234 ) );
#146 = AXIS2_PLACEMENT_3D( '', #235, #236, #237 );
#147 = SURFACE_SIDE_STYLE( '', ( #238 ) );
#148 = EDGE_LOOP( '', ( #239 ) );
#149 = EDGE_LOOP( '', ( #240 ) );
#150 = AXIS2_PLACEMENT_3D( '', #241, #242, #243 );
#151 = SURFACE_SIDE_STYLE( '', ( #244 ) );
#152 = EDGE_LOOP( '', ( #245 ) );
#153 = EDGE_LOOP( '', ( #246 ) );
#154 = AXIS2_PLACEMENT_3D( '', #247, #248, #249 );
#155 = SURFACE_SIDE_STYLE( '', ( #250 ) );
#156 = EDGE_LOOP( '', ( #251 ) );
#157 = EDGE_LOOP( '', ( #252 ) );
#158 = AXIS2_PLACEMENT_3D( '', #253, #254, #255 );
#159 = SURFACE_SIDE_STYLE( '', ( #256 ) );
#160 = EDGE_LOOP( '', ( #257 ) );
#161 = EDGE_LOOP( '', ( #258 ) );
#162 = AXIS2_PLACEMENT_3D( '', #259, #260, #261 );
#163 = SURFACE_SIDE_STYLE( '', ( #262 ) );
#164 = EDGE_LOOP( '', ( #263 ) );
#165 = EDGE_LOOP( '', ( #264 ) );
#166 = AXIS2_PLACEMENT_3D( '', #265, #266, #267 );
#167 = SURFACE_SIDE_STYLE( '', ( #268 ) );
#168 = EDGE_LOOP( '', ( #269 ) );
#169 = EDGE_LOOP( '', ( #270 ) );
#172 = CARTESIAN_POINT( '', ( 0.000000000000000, 12.6926474231605, -56.8276620034220 ) );
#173 = CARTESIAN_POINT( '', ( 113.655324006844, 12.6926474231605, -56.8276620034220 ) );
#174 = CARTESIAN_POINT( '', ( 113.655324006844, 12.6926474231605, 56.8276620034220 ) );
#175 = CARTESIAN_POINT( '', ( 0.000000000000000, 12.6926474231605, 56.8276620034220 ) );
#176 = CARTESIAN_POINT( '', ( -113.655324006844, 12.6926474231605, 56.8276620034220 ) );
#177 = CARTESIAN_POINT( '', ( -113.655324006844, 12.6926474231605, -56.8276620034220 ) );
#178 = CARTESIAN_POINT( '', ( 0.000000000000000, 12.6926474231605, -56.8276620034220 ) );
#179 = CARTESIAN_POINT( '', ( 0.000000000000000, 15.8838094289854, -41.7388867637042 ) );
#180 = CARTESIAN_POINT( '', ( 83.4777735274084, 15.8838094289854, -41.7388867637042 ) );
#181 = CARTESIAN_POINT( '', ( 83.4777735274084, 15.8838094289854, 41.7388867637042 ) );
#182 = CARTESIAN_POINT( '', ( 0.000000000000000, 15.8838094289854, 41.7388867637042 ) );
#183 = CARTESIAN_POINT( '', ( -83.4777735274084, 15.8838094289854, 41.7388867637042 ) );
#184 = CARTESIAN_POINT( '', ( -83.4777735274084, 15.8838094289854, -41.7388867637042 ) );
#185 = CARTESIAN_POINT( '', ( 0.000000000000000, 15.8838094289854, -41.7388867637042 ) );
#186 = CARTESIAN_POINT( '', ( 0.000000000000000, 17.6580520065210, -26.4187458877788 ) );
#187 = CARTESIAN_POINT( '', ( 52.8374917755576, 17.6580520065211, -26.4187458877788 ) );
#188 = CARTESIAN_POINT( '', ( 52.8374917755576, 17.6580520065211, 26.4187458877788 ) );
#189 = CARTESIAN_POINT( '', ( 0.000000000000000, 17.6580520065210, 26.4187458877788 ) );
#190 = CARTESIAN_POINT( '', ( -52.8374917755576, 17.6580520065211, 26.4187458877788 ) );
#191 = CARTESIAN_POINT( '', ( -52.8374917755576, 17.6580520065211, -26.4187458877788 ) );
#192 = CARTESIAN_POINT( '', ( 0.000000000000000, 17.6580520065210, -26.4187458877788 ) );
#193 = CARTESIAN_POINT( '', ( 0.000000000000000, 18.0000000000000, -11.0000000000000 ) );
#194 = CARTESIAN_POINT( '', ( 22.0000000000000, 18.0000000000000, -11.0000000000000 ) );
#195 = CARTESIAN_POINT( '', ( 22.0000000000000, 18.0000000000000, 11.0000000000000 ) );
#196 = CARTESIAN_POINT( '', ( 0.000000000000000, 18.0000000000000, 11.0000000000000 ) );
#197 = CARTESIAN_POINT( '', ( -22.0000000000000, 18.0000000000000, 11.0000000000000 ) );
#198 = CARTESIAN_POINT( '', ( -22.0000000000000, 18.0000000000000, -11.0000000000000 ) );
#199 = CARTESIAN_POINT( '', ( 0.000000000000000, 18.0000000000000, -11.0000000000000 ) );
#205 = SURFACE_SIDE_STYLE( '', ( #271 ) );
#206 = EDGE_LOOP( '', ( #272 ) );
#207 = AXIS2_PLACEMENT_3D( '', #273, #274, #275 );
#208 = SURFACE_SIDE_STYLE( '', ( #276 ) );
#209 = EDGE_LOOP( '', ( #277 ) );
#210 = EDGE_LOOP( '', ( #278 ) );
#211 = AXIS2_PLACEMENT_3D( '', #279, #280, #281 );
#212 = SURFACE_SIDE_STYLE( '', ( #282 ) );
#213 = EDGE_LOOP( '', ( #283 ) );
#214 = EDGE_LOOP( '', ( #284 ) );
#215 = AXIS2_PLACEMENT_3D( '', #285, #286, #287 );
#216 = SURFACE_SIDE_STYLE( '', ( #288 ) );
#217 = EDGE_LOOP( '', ( #289 ) );
#218 = EDGE_LOOP( '', ( #290 ) );
#219 = AXIS2_PLACEMENT_3D( '', #291, #292, #293 );
#221 = SURFACE_STYLE_FILL_AREA( #294 );
#222 = ORIENTED_EDGE( '', *, *, #295, .T. );
#223 = CARTESIAN_POINT( '', ( 37.0000000000000, 5.49000000000000, 0.000000000000000 ) );
#224 = DIRECTION( '', ( 0.000000000000000, -1.00000000000000, -0.000000000000000 ) );
#225 = DIRECTION( '', ( 0.000000000000000, 0.000000000000000, -1.00000000000000 ) );
#226 = SURFACE_STYLE_FILL_AREA( #296 );
#227 = ORIENTED_EDGE( '', *, *, #297, .F. );
#228 = ORIENTED_EDGE( '', *, *, #298, .T. );
#229 = CARTESIAN_POINT( '', ( 52.8000000000000, -2.00000000000000, 0.000000000000000 ) );
#230 = DIRECTION( '', ( 0.000000000000000, 1.00000000000000, 0.000000000000000 ) );
#231 = DIRECTION( '', ( 0.000000000000000, -0.000000000000000, 1.00000000000000 ) );
#232 = SURFACE_STYLE_FILL_AREA( #299 );
#233 = ORIENTED_EDGE( '', *, *, #300, .T. );
#234 = ORIENTED_EDGE( '', *, *, #301, .F. );
#235 = CARTESIAN_POINT( '', ( 0.000000000000000, 15.5000000000000, 0.000000000000000 ) );
#236 = DIRECTION( '', ( -0.000000000000000, -1.00000000000000, -0.000000000000000 ) );
#237 = DIRECTION( '', ( 0.000000000000000, 0.000000000000000, -1.00000000000000 ) );
#238 = SURFACE_STYLE_FILL_AREA( #302 );
#239 = ORIENTED_EDGE( '', *, *, #303, .T. );
#240 = ORIENTED_EDGE( '', *, *, #300, .F. );
#241 = CARTESIAN_POINT( '', ( 0.000000000000000, 9.50000000000000, 0.000000000000000 ) );
#242 = DIRECTION( '', ( -0.000000000000000, 1.00000000000000, 0.000000000000000 ) );
#243 = DIRECTION( '', ( 0.000000000000000, -0.000000000000000, 1.00000000000000 ) );
#244 = SURFACE_STYLE_FILL_AREA( #304 );
#245 = ORIENTED_EDGE( '', *, *, #305, .F. );
#246 = ORIENTED_EDGE( '', *, *, #306, .T. );
#247 = CARTESIAN_POINT( '', ( 0.000000000000000, -2.00000000000000, 0.000000000000000 ) );
#248 = DIRECTION( '', ( -0.000000000000000, 1.00000000000000, 0.000000000000000 ) );
#249 = DIRECTION( '', ( 0.000000000000000, 0.000000000000000, -1.00000000000000 ) );
#250 = SURFACE_STYLE_FILL_AREA( #307 );
#251 = ORIENTED_EDGE( '', *, *, #308, .T. );
#252 = ORIENTED_EDGE( '', *, *, #303, .F. );
#253 = CARTESIAN_POINT( '', ( 0.000000000000000, 10.5000000000000, 0.000000000000000 ) );
#254 = DIRECTION( '', ( -0.000000000000000, -1.00000000000000, -0.000000000000000 ) );
#255 = DIRECTION( '', ( 0.000000000000000, 0.000000000000000, -1.00000000000000 ) );
#256 = SURFACE_STYLE_FILL_AREA( #309 );
#257 = ORIENTED_EDGE( '', *, *, #310, .T. );
#258 = ORIENTED_EDGE( '', *, *, #306, .F. );
#259 = CARTESIAN_POINT( '', ( 0.000000000000000, 8.77921215372117, 0.000000000000000 ) );
#260 = DIRECTION( '', ( 0.000000000000000, -1.00000000000000, -0.000000000000000 ) );
#261 = DIRECTION( '', ( 0.000000000000000, 0.000000000000000, -1.00000000000000 ) );
#262 = SURFACE_STYLE_FILL_AREA( #311 );
#263 = ORIENTED_EDGE( '', *, *, #312, .F. );
#264 = ORIENTED_EDGE( '', *, *, #305, .T. );
#265 = CARTESIAN_POINT( '', ( 60.0000000000000, 0.000000000000000, 0.000000000000000 ) );
#266 = DIRECTION( '', ( 0.000000000000000, 1.00000000000000, 0.000000000000000 ) );
#267 = DIRECTION( '', ( 0.000000000000000, -0.000000000000000, 1.00000000000000 ) );
#268 = SURFACE_STYLE_FILL_AREA( #313 );
#269 = ORIENTED_EDGE( '', *, *, #314, .T. );
#270 = ORIENTED_EDGE( '', *, *, #310, .F. );
#271 = SURFACE_STYLE_FILL_AREA( #315 );
#272 = ORIENTED_EDGE( '', *, *, #308, .F. );
#273 = CARTESIAN_POINT( '', ( 11.2500000000000, 0.000000000000000, 0.000000000000000 ) );
#274 = DIRECTION( '', ( 0.000000000000000, 1.00000000000000, 0.000000000000000 ) );
#275 = DIRECTION( '', ( 0.000000000000000, -0.000000000000000, 1.00000000000000 ) );
#276 = SURFACE_STYLE_FILL_AREA( #316 );
#277 = ORIENTED_EDGE( '', *, *, #298, .F. );
#278 = ORIENTED_EDGE( '', *, *, #312, .T. );
#279 = CARTESIAN_POINT( '', ( 0.000000000000000, -2.00000000000000, 0.000000000000000 ) );
#280 = DIRECTION( '', ( -0.000000000000000, 1.00000000000000, 0.000000000000000 ) );
#281 = DIRECTION( '', ( 0.000000000000000, 0.000000000000000, -1.00000000000000 ) );
#282 = SURFACE_STYLE_FILL_AREA( #317 );
#283 = ORIENTED_EDGE( '', *, *, #297, .T. );
#284 = ORIENTED_EDGE( '', *, *, #295, .F. );
#285 = CARTESIAN_POINT( '', ( 37.0000000000000, -2.01000000000000, 0.000000000000000 ) );
#286 = DIRECTION( '', ( -0.000000000000000, 1.00000000000000, 0.000000000000000 ) );
#287 = DIRECTION( '', ( 0.000000000000000, 0.000000000000000, -1.00000000000000 ) );
#288 = SURFACE_STYLE_FILL_AREA( #318 );
#289 = ORIENTED_EDGE( '', *, *, #301, .T. );
#290 = ORIENTED_EDGE( '', *, *, #314, .F. );
#291 = CARTESIAN_POINT( '', ( 0.000000000000000, 18.0000000000000, 0.000000000000000 ) );
#292 = DIRECTION( '', ( -0.000000000000000, 1.00000000000000, 0.000000000000000 ) );
#293 = DIRECTION( '', ( 0.000000000000000, -0.000000000000000, 1.00000000000000 ) );
#294 = FILL_AREA_STYLE( '', ( #319 ) );
#295 = EDGE_CURVE( '', #320, #320, #321, .T. );
#296 = FILL_AREA_STYLE( '', ( #322 ) );
#297 = EDGE_CURVE( '', #323, #323, #324, .F. );
#298 = EDGE_CURVE( '', #325, #325, #326, .T. );
#299 = FILL_AREA_STYLE( '', ( #327 ) );
#300 = EDGE_CURVE( '', #328, #328, #329, .T. );
#301 = EDGE_CURVE( '', #330, #330, #331, .T. );
#302 = FILL_AREA_STYLE( '', ( #332 ) );
#303 = EDGE_CURVE( '', #333, #333, #334, .T. );
#304 = FILL_AREA_STYLE( '', ( #335 ) );
#305 = EDGE_CURVE( '', #336, #336, #337, .T. );
#306 = EDGE_CURVE( '', #338, #338, #339, .T. );
#307 = FILL_AREA_STYLE( '', ( #340 ) );
#308 = EDGE_CURVE( '', #341, #341, #342, .T. );
#309 = FILL_AREA_STYLE( '', ( #343 ) );
#310 = EDGE_CURVE( '', #344, #344, #345, .T. );
#311 = FILL_AREA_STYLE( '', ( #346 ) );
#312 = EDGE_CURVE( '', #347, #347, #348, .T. );
#313 = FILL_AREA_STYLE( '', ( #349 ) );
#314 = EDGE_CURVE( '', #350, #350, #351, .T. );
#315 = FILL_AREA_STYLE( '', ( #352 ) );
#316 = FILL_AREA_STYLE( '', ( #353 ) );
#317 = FILL_AREA_STYLE( '', ( #354 ) );
#318 = FILL_AREA_STYLE( '', ( #355 ) );
#319 = FILL_AREA_STYLE_COLOUR( '', #356 );
#320 = VERTEX_POINT( '', #357 );
#321 = CIRCLE( '', #358, 4.50000000000000 );
#322 = FILL_AREA_STYLE_COLOUR( '', #359 );
#323 = VERTEX_POINT( '', #360 );
#324 = CIRCLE( '', #361, 4.50000000000000 );
#325 = VERTEX_POINT( '', #362 );
#326 = CIRCLE( '', #363, 52.8000000000000 );
#327 = FILL_AREA_STYLE_COLOUR( '', #364 );
#328 = VERTEX_POINT( '', #365 );
#329 = CIRCLE( '', #366, 7.00000000000000 );
#330 = VERTEX_POINT( '', #367 );
#331 = CIRCLE( '', #368, 6.50000000000000 );
#332 = FILL_AREA_STYLE_COLOUR( '', #369 );
#333 = VERTEX_POINT( '', #370 );
#334 = CIRCLE( '', #371, 9.59210526320000 );
#335 = FILL_AREA_STYLE_COLOUR( '', #372 );
#336 = VERTEX_POINT( '', #373 );
#337 = CIRCLE( '', #374, 60.0000000000000 );
#338 = VERTEX_POINT( '', #375 );
#339 = CIRCLE( '', #376, 60.0000000000000 );
#340 = FILL_AREA_STYLE_COLOUR( '', #377 );
#341 = VERTEX_POINT( '', #378 );
#342 = CIRCLE( '', #379, 11.2500000000000 );
#343 = FILL_AREA_STYLE_COLOUR( '', #380 );
#344 = VERTEX_POINT( '', #381 );
#345 = CIRCLE( '', #382, 56.8276620034000 );
#346 = FILL_AREA_STYLE_COLOUR( '', #383 );
#347 = VERTEX_POINT( '', #384 );
#348 = CIRCLE( '', #385, 52.8000000000000 );
#349 = FILL_AREA_STYLE_COLOUR( '', #386 );
#350 = VERTEX_POINT( '', #387 );
#351 = CIRCLE( '', #388, 11.0000000000000 );
#352 = FILL_AREA_STYLE_COLOUR( '', #389 );
#353 = FILL_AREA_STYLE_COLOUR( '', #390 );
#354 = FILL_AREA_STYLE_COLOUR( '', #391 );
#355 = FILL_AREA_STYLE_COLOUR( '', #392 );
#356 = COLOUR_RGB( '', 0.689999997600000, 0.689999997600000, 0.689999997600000 );
#357 = CARTESIAN_POINT( '', ( 37.0000000000000, 5.49000000000000, -4.50000000000000 ) );
#358 = AXIS2_PLACEMENT_3D( '', #393, #394, #395 );
#359 = COLOUR_RGB( '', 0.689999997600000, 0.689999997600000, 0.689999997600000 );
#360 = CARTESIAN_POINT( '', ( 37.0000000000000, -2.00000000000000, 4.50000000000000 ) );
#361 = AXIS2_PLACEMENT_3D( '', #396, #397, #398 );
#362 = CARTESIAN_POINT( '', ( 0.000000000000000, -2.00000000000000, -52.8000000000000 ) );
#363 = AXIS2_PLACEMENT_3D( '', #399, #400, #401 );
#364 = COLOUR_RGB( '', 0.689999997600000, 0.689999997600000, 0.689999997600000 );
#365 = CARTESIAN_POINT( '', ( 0.000000000000000, 9.50000000000000, -6.99999999999999 ) );
#366 = AXIS2_PLACEMENT_3D( '', #402, #403, #404 );
#367 = CARTESIAN_POINT( '', ( 0.000000000000000, 15.5000000000000, -6.49999999999999 ) );
#368 = AXIS2_PLACEMENT_3D( '', #405, #406, #407 );
#369 = COLOUR_RGB( '', 0.689999997600000, 0.689999997600000, 0.689999997600000 );
#370 = CARTESIAN_POINT( '', ( 0.000000000000000, 10.5000000000000, -9.59210526315790 ) );
#371 = AXIS2_PLACEMENT_3D( '', #408, #409, #410 );
#372 = COLOUR_RGB( '', 0.689999997600000, 0.689999997600000, 0.689999997600000 );
#373 = CARTESIAN_POINT( '', ( 0.000000000000000, 0.000000000000000, -60.0000000000000 ) );
#374 = AXIS2_PLACEMENT_3D( '', #411, #412, #413 );
#375 = CARTESIAN_POINT( '', ( 0.000000000000000, 8.77921215372115, -60.0000000000000 ) );
#376 = AXIS2_PLACEMENT_3D( '', #414, #415, #416 );
#377 = COLOUR_RGB( '', 0.689999997600000, 0.689999997600000, 0.689999997600000 );
#378 = CARTESIAN_POINT( '', ( 0.000000000000000, 0.000000000000000, -11.2500000000000 ) );
#379 = AXIS2_PLACEMENT_3D( '', #417, #418, #419 );
#380 = COLOUR_RGB( '', 0.689999997600000, 0.689999997600000, 0.689999997600000 );
#381 = CARTESIAN_POINT( '', ( 0.000000000000000, 12.6926474231605, -56.8276620034220 ) );
#382 = AXIS2_PLACEMENT_3D( '', #420, #421, #422 );
#383 = COLOUR_RGB( '', 0.689999997600000, 0.689999997600000, 0.689999997600000 );
#384 = CARTESIAN_POINT( '', ( 0.000000000000000, 0.000000000000000, -52.8000000000000 ) );
#385 = AXIS2_PLACEMENT_3D( '', #423, #424, #425 );
#386 = COLOUR_RGB( '', 0.689999997600000, 0.689999997600000, 0.689999997600000 );
#387 = CARTESIAN_POINT( '', ( 0.000000000000000, 18.0000000000000, -11.0000000000000 ) );
#388 = AXIS2_PLACEMENT_3D( '', #426, #427, #428 );
#389 = COLOUR_RGB( '', 0.689999997600000, 0.689999997600000, 0.689999997600000 );
#390 = COLOUR_RGB( '', 0.689999997600000, 0.689999997600000, 0.689999997600000 );
#391 = COLOUR_RGB( '', 0.689999997600000, 0.689999997600000, 0.689999997600000 );
#392 = COLOUR_RGB( '', 0.689999997600000, 0.689999997600000, 0.689999997600000 );
#393 = CARTESIAN_POINT( '', ( 37.0000000000000, 5.49000000000000, 0.000000000000000 ) );
#394 = DIRECTION( '', ( 0.000000000000000, -1.00000000000000, -0.000000000000000 ) );
#395 = DIRECTION( '', ( 0.000000000000000, 0.000000000000000, -1.00000000000000 ) );
#396 = CARTESIAN_POINT( '', ( 37.0000000000000, -2.00000000000000, 0.000000000000000 ) );
#397 = DIRECTION( '', ( 0.000000000000000, 1.00000000000000, 0.000000000000000 ) );
#398 = DIRECTION( '', ( 0.000000000000000, -0.000000000000000, 1.00000000000000 ) );
#399 = CARTESIAN_POINT( '', ( 0.000000000000000, -2.00000000000000, 0.000000000000000 ) );
#400 = DIRECTION( '', ( 0.000000000000000, -1.00000000000000, -0.000000000000000 ) );
#401 = DIRECTION( '', ( 0.000000000000000, 0.000000000000000, -1.00000000000000 ) );
#402 = CARTESIAN_POINT( '', ( 0.000000000000000, 9.50000000000000, 0.000000000000000 ) );
#403 = DIRECTION( '', ( 0.000000000000000, -1.00000000000000, -0.000000000000000 ) );
#404 = DIRECTION( '', ( 0.000000000000000, 0.000000000000000, -1.00000000000000 ) );
#405 = CARTESIAN_POINT( '', ( 0.000000000000000, 15.5000000000000, 0.000000000000000 ) );
#406 = DIRECTION( '', ( 0.000000000000000, -1.00000000000000, -0.000000000000000 ) );
#407 = DIRECTION( '', ( 0.000000000000000, 0.000000000000000, -1.00000000000000 ) );
#408 = CARTESIAN_POINT( '', ( 0.000000000000000, 10.5000000000000, 0.000000000000000 ) );
#409 = DIRECTION( '', ( 0.000000000000000, -1.00000000000000, -0.000000000000000 ) );
#410 = DIRECTION( '', ( 0.000000000000000, 0.000000000000000, -1.00000000000000 ) );
#411 = CARTESIAN_POINT( '', ( 0.000000000000000, 0.000000000000000, 0.000000000000000 ) );
#412 = DIRECTION( '', ( 0.000000000000000, -1.00000000000000, -0.000000000000000 ) );
#413 = DIRECTION( '', ( 0.000000000000000, 0.000000000000000, -1.00000000000000 ) );
#414 = CARTESIAN_POINT( '', ( 0.000000000000000, 8.77921215372115, 0.000000000000000 ) );
#415 = DIRECTION( '', ( 0.000000000000000, -1.00000000000000, -0.000000000000000 ) );
#416 = DIRECTION( '', ( 0.000000000000000, 0.000000000000000, -1.00000000000000 ) );
#417 = CARTESIAN_POINT( '', ( 0.000000000000000, 0.000000000000000, 0.000000000000000 ) );
#418 = DIRECTION( '', ( 0.000000000000000, -1.00000000000000, -0.000000000000000 ) );
#419 = DIRECTION( '', ( 0.000000000000000, 0.000000000000000, -1.00000000000000 ) );
#420 = CARTESIAN_POINT( '', ( 0.000000000000000, 12.6926474231605, 0.000000000000000 ) );
#421 = DIRECTION( '', ( 0.000000000000000, -1.00000000000000, -0.000000000000000 ) );
#422 = DIRECTION( '', ( 0.000000000000000, 0.000000000000000, -1.00000000000000 ) );
#423 = CARTESIAN_POINT( '', ( 0.000000000000000, 0.000000000000000, 0.000000000000000 ) );
#424 = DIRECTION( '', ( 0.000000000000000, -1.00000000000000, -0.000000000000000 ) );
#425 = DIRECTION( '', ( 0.000000000000000, 0.000000000000000, -1.00000000000000 ) );
#426 = CARTESIAN_POINT( '', ( 0.000000000000000, 18.0000000000000, 0.000000000000000 ) );
#427 = DIRECTION( '', ( 0.000000000000000, -1.00000000000000, -0.000000000000000 ) );
#428 = DIRECTION( '', ( 0.000000000000000, 0.000000000000000, -1.00000000000000 ) );
ENDSEC;
END-ISO-10303-21;
