ISO-10303-21;
HEADER;
FILE_DESCRIPTION( ( 'STEP AP214' ), '1' );
FILE_NAME( '//goodhand-server/Shared Folders/GoodHand Data/Kipp CAD/K0424/K0425.20801.stp', '2020-12-07T14:48:14', ( '' ), ( '' ), ' ', 'PARTsolutions', ' ' );
FILE_SCHEMA( ( 'AUTOMOTIVE_DESIGN { 1 0 10303 214 1 1 1 1 }' ) );
ENDSEC;
DATA;
#1 = MECHANICAL_DESIGN_GEOMETRIC_PRESENTATION_REPRESENTATION( ' ', ( #10, #11, #12, #13, #14, #15, #16, #17, #18, #19, #20, #21, #22 ), #6 );
#2 = PRODUCT_DEFINITION_CONTEXT( '', #23, 'design' );
#3 = APPLICATION_PROTOCOL_DEFINITION( 'international standard', 'automotive_design', 2001, #23 );
#4 = PRODUCT_CATEGORY_RELATIONSHIP( 'NONE', 'NONE', #24, #25 );
#5 = SHAPE_DEFINITION_REPRESENTATION( #26, #27 );
#6 =  ( GEOMETRIC_REPRESENTATION_CONTEXT( 3 )GLOBAL_UNCERTAINTY_ASSIGNED_CONTEXT( ( #30 ) )GLOBAL_UNIT_ASSIGNED_CONTEXT( ( #32, #33, #34 ) )REPRESENTATION_CONTEXT( 'NONE', 'WORKSPACE' ) );
#10 = STYLED_ITEM( '', ( #36 ), #37 );
#11 = STYLED_ITEM( '', ( #38 ), #39 );
#12 = STYLED_ITEM( '', ( #40 ), #41 );
#13 = STYLED_ITEM( '', ( #42 ), #43 );
#14 = STYLED_ITEM( '', ( #44 ), #45 );
#15 = STYLED_ITEM( '', ( #46 ), #47 );
#16 = STYLED_ITEM( '', ( #48 ), #49 );
#17 = STYLED_ITEM( '', ( #50 ), #51 );
#18 = STYLED_ITEM( '', ( #52 ), #53 );
#19 = STYLED_ITEM( '', ( #54 ), #55 );
#20 = STYLED_ITEM( '', ( #56 ), #57 );
#21 = STYLED_ITEM( '', ( #58 ), #59 );
#22 = STYLED_ITEM( '', ( #60 ), #61 );
#23 = APPLICATION_CONTEXT( 'core data for automotive mechanical design processes' );
#24 = PRODUCT_CATEGORY( 'part', 'NONE' );
#25 = PRODUCT_RELATED_PRODUCT_CATEGORY( 'detail', ' ', ( #62 ) );
#26 = PRODUCT_DEFINITION_SHAPE( 'NONE', 'NONE', #63 );
#27 = ADVANCED_BREP_SHAPE_REPRESENTATION( '_K0425.20801', ( #64, #65 ), #6 );
#30 = UNCERTAINTY_MEASURE_WITH_UNIT( LENGTH_MEASURE( 0.00100000000000000 ), #32, '', '' );
#32 =  ( CONVERSION_BASED_UNIT( 'MILLIMETRE', #68 )LENGTH_UNIT(  )NAMED_UNIT( #71 ) );
#33 =  ( NAMED_UNIT( #73 )PLANE_ANGLE_UNIT(  )SI_UNIT( $, .RADIAN. ) );
#34 =  ( NAMED_UNIT( #73 )SI_UNIT( $, .STERADIAN. )SOLID_ANGLE_UNIT(  ) );
#36 = PRESENTATION_STYLE_ASSIGNMENT( ( #79 ) );
#37 = ADVANCED_FACE( '', ( #80, #81 ), #82, .F. );
#38 = PRESENTATION_STYLE_ASSIGNMENT( ( #83 ) );
#39 = ADVANCED_FACE( '', ( #84, #85 ), #86, .T. );
#40 = PRESENTATION_STYLE_ASSIGNMENT( ( #87 ) );
#41 = ADVANCED_FACE( '', ( #88, #89 ), #90, .T. );
#42 = PRESENTATION_STYLE_ASSIGNMENT( ( #91 ) );
#43 = ADVANCED_FACE( '', ( #92, #93 ), #94, .F. );
#44 = PRESENTATION_STYLE_ASSIGNMENT( ( #95 ) );
#45 = ADVANCED_FACE( '', ( #96, #97 ), #98, .F. );
#46 = PRESENTATION_STYLE_ASSIGNMENT( ( #99 ) );
#47 = ADVANCED_FACE( '', ( #100, #101 ), #102, .F. );
#48 = PRESENTATION_STYLE_ASSIGNMENT( ( #103 ) );
#49 = ADVANCED_FACE( '', ( #104 ), #105, .T. );
#50 = PRESENTATION_STYLE_ASSIGNMENT( ( #106 ) );
#51 = ADVANCED_FACE( '', ( #107, #108 ), #109, .F. );
#52 = PRESENTATION_STYLE_ASSIGNMENT( ( #110 ) );
#53 = ADVANCED_FACE( '', ( #111, #112 ), #113, .T. );
#54 = PRESENTATION_STYLE_ASSIGNMENT( ( #114 ) );
#55 = ADVANCED_FACE( '', ( #115 ), #116, .T. );
#56 = PRESENTATION_STYLE_ASSIGNMENT( ( #117 ) );
#57 = ADVANCED_FACE( '', ( #118, #119 ), #120, .T. );
#58 = PRESENTATION_STYLE_ASSIGNMENT( ( #121 ) );
#59 = ADVANCED_FACE( '', ( #122, #123 ), #124, .F. );
#60 = PRESENTATION_STYLE_ASSIGNMENT( ( #125 ) );
#61 = ADVANCED_FACE( '', ( #126, #127 ), #128, .T. );
#62 = PRODUCT( '_K0425.20801', '_K0425.20801', 'PART-_K0425.20801-DESC', ( #129 ) );
#63 = PRODUCT_DEFINITION( 'NONE', 'NONE', #130, #2 );
#64 = MANIFOLD_SOLID_BREP( '_K0425.20801', #131 );
#65 = AXIS2_PLACEMENT_3D( '', #132, #133, #134 );
#68 = LENGTH_MEASURE_WITH_UNIT( LENGTH_MEASURE( 1.00000000000000 ), #135 );
#71 = DIMENSIONAL_EXPONENTS( 1.00000000000000, 0.000000000000000, 0.000000000000000, 0.000000000000000, 0.000000000000000, 0.000000000000000, 0.000000000000000 );
#73 = DIMENSIONAL_EXPONENTS( 0.000000000000000, 0.000000000000000, 0.000000000000000, 0.000000000000000, 0.000000000000000, 0.000000000000000, 0.000000000000000 );
#79 = SURFACE_STYLE_USAGE( .BOTH., #136 );
#80 = FACE_OUTER_BOUND( '', #137, .T. );
#81 = FACE_BOUND( '', #138, .T. );
#82 = CONICAL_SURFACE( '', #139, 6.50000000000000, 0.0831412319000000 );
#83 = SURFACE_STYLE_USAGE( .BOTH., #140 );
#84 = FACE_OUTER_BOUND( '', #141, .T. );
#85 = FACE_OUTER_BOUND( '', #142, .T. );
#86 = ( BOUNDED_SURFACE(  )B_SPLINE_SURFACE( 3, 3, ( ( #145, #146, #147, #148, #149, #150, #151 ), ( #152, #153, #154, #155, #156, #157, #158 ), ( #159, #160, #161, #162, #163, #164, #165 ), ( #166, #167, #168, #169, #170, #171, #172 ) ), .UNSPECIFIED., .F., .T., .F. )B_SPLINE_SURFACE_WITH_KNOTS( ( 4, 4 ), ( 4, 3, 4 ), ( 0.000000000000000, 6.28318530717959 ), ( -1.51566829481185, -1.38125878640752, -1.24684927800319 ), .UNSPECIFIED. )GEOMETRIC_REPRESENTATION_ITEM(  )RATIONAL_B_SPLINE_SURFACE( ( ( 1.00000000000000, 0.333333333333333, 0.333333333333333, 1.00000000000000, 0.333333333333333, 0.333333333333333, 1.00000000000000 ), ( 0.993987088595696, 0.331329029531899, 0.331329029531899, 0.993987088595696, 0.331329029531899, 0.331329029531899, 0.993987088595696 ), ( 0.993987088595696, 0.331329029531899, 0.331329029531899, 0.993987088595696, 0.331329029531899, 0.331329029531899, 0.993987088595696 ), ( 1.00000000000000, 0.333333333333333, 0.333333333333333, 1.00000000000000, 0.333333333333333, 0.333333333333333, 1.00000000000000 ) ) )REPRESENTATION_ITEM( '' )SURFACE(  ) );
#87 = SURFACE_STYLE_USAGE( .BOTH., #178 );
#88 = FACE_OUTER_BOUND( '', #179, .T. );
#89 = FACE_OUTER_BOUND( '', #180, .T. );
#90 = CYLINDRICAL_SURFACE( '', #181, 40.0000000000000 );
#91 = SURFACE_STYLE_USAGE( .BOTH., #182 );
#92 = FACE_BOUND( '', #183, .T. );
#93 = FACE_OUTER_BOUND( '', #184, .T. );
#94 = PLANE( '', #185 );
#95 = SURFACE_STYLE_USAGE( .BOTH., #186 );
#96 = FACE_BOUND( '', #187, .T. );
#97 = FACE_OUTER_BOUND( '', #188, .T. );
#98 = PLANE( '', #189 );
#99 = SURFACE_STYLE_USAGE( .BOTH., #190 );
#100 = FACE_OUTER_BOUND( '', #191, .T. );
#101 = FACE_OUTER_BOUND( '', #192, .T. );
#102 = CYLINDRICAL_SURFACE( '', #193, 4.50000000000000 );
#103 = SURFACE_STYLE_USAGE( .BOTH., #194 );
#104 = FACE_OUTER_BOUND( '', #195, .T. );
#105 = PLANE( '', #196 );
#106 = SURFACE_STYLE_USAGE( .BOTH., #197 );
#107 = FACE_OUTER_BOUND( '', #198, .T. );
#108 = FACE_BOUND( '', #199, .T. );
#109 = CONICAL_SURFACE( '', #200, 9.59210526320000, 0.156601877000000 );
#110 = SURFACE_STYLE_USAGE( .BOTH., #201 );
#111 = FACE_OUTER_BOUND( '', #202, .T. );
#112 = FACE_BOUND( '', #203, .T. );
#113 = CONICAL_SURFACE( '', #204, 7.00000000000000, 1.20260243210000 );
#114 = SURFACE_STYLE_USAGE( .BOTH., #205 );
#115 = FACE_OUTER_BOUND( '', #206, .T. );
#116 = PLANE( '', #207 );
#117 = SURFACE_STYLE_USAGE( .BOTH., #208 );
#118 = FACE_OUTER_BOUND( '', #209, .T. );
#119 = FACE_OUTER_BOUND( '', #210, .T. );
#120 = CYLINDRICAL_SURFACE( '', #211, 35.2000000000000 );
#121 = SURFACE_STYLE_USAGE( .BOTH., #212 );
#122 = FACE_BOUND( '', #213, .T. );
#123 = FACE_OUTER_BOUND( '', #214, .T. );
#124 = CONICAL_SURFACE( '', #215, 11.0000000000000, 1.06369782240000 );
#125 = SURFACE_STYLE_USAGE( .BOTH., #216 );
#126 = FACE_OUTER_BOUND( '', #217, .T. );
#127 = FACE_OUTER_BOUND( '', #218, .T. );
#128 = TOROIDAL_SURFACE( '', #219, 36.0000000000000, 4.00000000000000 );
#129 = PRODUCT_CONTEXT( '', #23, 'mechanical' );
#130 = PRODUCT_DEFINITION_FORMATION_WITH_SPECIFIED_SOURCE( ' ', 'NONE', #62, .NOT_KNOWN. );
#131 = CLOSED_SHELL( '', ( #55, #51, #39, #61, #41, #43, #57, #45, #49, #47, #59, #37, #53 ) );
#132 = CARTESIAN_POINT( '', ( 0.000000000000000, 0.000000000000000, 0.000000000000000 ) );
#133 = DIRECTION( '', ( 0.000000000000000, 0.000000000000000, 1.00000000000000 ) );
#134 = DIRECTION( '', ( 1.00000000000000, 0.000000000000000, 0.000000000000000 ) );
#135 =  ( LENGTH_UNIT(  )NAMED_UNIT( #71 )SI_UNIT( .MILLI., .METRE. ) );
#136 = SURFACE_SIDE_STYLE( '', ( #221 ) );
#137 = EDGE_LOOP( '', ( #222 ) );
#138 = EDGE_LOOP( '', ( #223 ) );
#139 = AXIS2_PLACEMENT_3D( '', #224, #225, #226 );
#140 = SURFACE_SIDE_STYLE( '', ( #227 ) );
#141 = EDGE_LOOP( '', ( #228 ) );
#142 = EDGE_LOOP( '', ( #229 ) );
#145 = CARTESIAN_POINT( '', ( 0.000000000000000, 12.9597327487303, -37.2732431162167 ) );
#146 = CARTESIAN_POINT( '', ( 74.5464862324334, 12.9597327487303, -37.2732431162167 ) );
#147 = CARTESIAN_POINT( '', ( 74.5464862324334, 12.9597327487303, 37.2732431162167 ) );
#148 = CARTESIAN_POINT( '', ( 0.000000000000000, 12.9597327487303, 37.2732431162167 ) );
#149 = CARTESIAN_POINT( '', ( -74.5464862324334, 12.9597327487303, 37.2732431162167 ) );
#150 = CARTESIAN_POINT( '', ( -74.5464862324334, 12.9597327487303, -37.2732431162167 ) );
#151 = CARTESIAN_POINT( '', ( 0.000000000000000, 12.9597327487303, -37.2732431162167 ) );
#152 = CARTESIAN_POINT( '', ( 0.000000000000000, 15.8154229629454, -28.7684870285687 ) );
#153 = CARTESIAN_POINT( '', ( 57.5369740571375, 15.8154229629454, -28.7684870285687 ) );
#154 = CARTESIAN_POINT( '', ( 57.5369740571375, 15.8154229629454, 28.7684870285687 ) );
#155 = CARTESIAN_POINT( '', ( 0.000000000000000, 15.8154229629454, 28.7684870285687 ) );
#156 = CARTESIAN_POINT( '', ( -57.5369740571375, 15.8154229629454, 28.7684870285687 ) );
#157 = CARTESIAN_POINT( '', ( -57.5369740571375, 15.8154229629454, -28.7684870285687 ) );
#158 = CARTESIAN_POINT( '', ( 0.000000000000000, 15.8154229629454, -28.7684870285687 ) );
#159 = CARTESIAN_POINT( '', ( 0.000000000000000, 17.5056753847653, -19.9577612094049 ) );
#160 = CARTESIAN_POINT( '', ( 39.9155224188098, 17.5056753847653, -19.9577612094049 ) );
#161 = CARTESIAN_POINT( '', ( 39.9155224188098, 17.5056753847653, 19.9577612094049 ) );
#162 = CARTESIAN_POINT( '', ( 0.000000000000000, 17.5056753847653, 19.9577612094049 ) );
#163 = CARTESIAN_POINT( '', ( -39.9155224188098, 17.5056753847653, 19.9577612094049 ) );
#164 = CARTESIAN_POINT( '', ( -39.9155224188098, 17.5056753847653, -19.9577612094049 ) );
#165 = CARTESIAN_POINT( '', ( 0.000000000000000, 17.5056753847653, -19.9577612094049 ) );
#166 = CARTESIAN_POINT( '', ( 0.000000000000000, 18.0000000000000, -10.9999999999998 ) );
#167 = CARTESIAN_POINT( '', ( 21.9999999999997, 18.0000000000000, -10.9999999999998 ) );
#168 = CARTESIAN_POINT( '', ( 21.9999999999997, 18.0000000000000, 10.9999999999998 ) );
#169 = CARTESIAN_POINT( '', ( 0.000000000000000, 18.0000000000000, 10.9999999999998 ) );
#170 = CARTESIAN_POINT( '', ( -21.9999999999997, 18.0000000000000, 10.9999999999998 ) );
#171 = CARTESIAN_POINT( '', ( -21.9999999999997, 18.0000000000000, -10.9999999999998 ) );
#172 = CARTESIAN_POINT( '', ( 0.000000000000000, 18.0000000000000, -10.9999999999998 ) );
#178 = SURFACE_SIDE_STYLE( '', ( #230 ) );
#179 = EDGE_LOOP( '', ( #231 ) );
#180 = EDGE_LOOP( '', ( #232 ) );
#181 = AXIS2_PLACEMENT_3D( '', #233, #234, #235 );
#182 = SURFACE_SIDE_STYLE( '', ( #236 ) );
#183 = EDGE_LOOP( '', ( #237 ) );
#184 = EDGE_LOOP( '', ( #238 ) );
#185 = AXIS2_PLACEMENT_3D( '', #239, #240, #241 );
#186 = SURFACE_SIDE_STYLE( '', ( #242 ) );
#187 = EDGE_LOOP( '', ( #243 ) );
#188 = EDGE_LOOP( '', ( #244 ) );
#189 = AXIS2_PLACEMENT_3D( '', #245, #246, #247 );
#190 = SURFACE_SIDE_STYLE( '', ( #248 ) );
#191 = EDGE_LOOP( '', ( #249 ) );
#192 = EDGE_LOOP( '', ( #250 ) );
#193 = AXIS2_PLACEMENT_3D( '', #251, #252, #253 );
#194 = SURFACE_SIDE_STYLE( '', ( #254 ) );
#195 = EDGE_LOOP( '', ( #255 ) );
#196 = AXIS2_PLACEMENT_3D( '', #256, #257, #258 );
#197 = SURFACE_SIDE_STYLE( '', ( #259 ) );
#198 = EDGE_LOOP( '', ( #260 ) );
#199 = EDGE_LOOP( '', ( #261 ) );
#200 = AXIS2_PLACEMENT_3D( '', #262, #263, #264 );
#201 = SURFACE_SIDE_STYLE( '', ( #265 ) );
#202 = EDGE_LOOP( '', ( #266 ) );
#203 = EDGE_LOOP( '', ( #267 ) );
#204 = AXIS2_PLACEMENT_3D( '', #268, #269, #270 );
#205 = SURFACE_SIDE_STYLE( '', ( #271 ) );
#206 = EDGE_LOOP( '', ( #272 ) );
#207 = AXIS2_PLACEMENT_3D( '', #273, #274, #275 );
#208 = SURFACE_SIDE_STYLE( '', ( #276 ) );
#209 = EDGE_LOOP( '', ( #277 ) );
#210 = EDGE_LOOP( '', ( #278 ) );
#211 = AXIS2_PLACEMENT_3D( '', #279, #280, #281 );
#212 = SURFACE_SIDE_STYLE( '', ( #282 ) );
#213 = EDGE_LOOP( '', ( #283 ) );
#214 = EDGE_LOOP( '', ( #284 ) );
#215 = AXIS2_PLACEMENT_3D( '', #285, #286, #287 );
#216 = SURFACE_SIDE_STYLE( '', ( #288 ) );
#217 = EDGE_LOOP( '', ( #289 ) );
#218 = EDGE_LOOP( '', ( #290 ) );
#219 = AXIS2_PLACEMENT_3D( '', #291, #292, #293 );
#221 = SURFACE_STYLE_FILL_AREA( #294 );
#222 = ORIENTED_EDGE( '', *, *, #295, .T. );
#223 = ORIENTED_EDGE( '', *, *, #296, .F. );
#224 = CARTESIAN_POINT( '', ( 0.000000000000000, 15.5000000000000, 0.000000000000000 ) );
#225 = DIRECTION( '', ( -0.000000000000000, -1.00000000000000, -0.000000000000000 ) );
#226 = DIRECTION( '', ( 0.000000000000000, 0.000000000000000, -1.00000000000000 ) );
#227 = SURFACE_STYLE_FILL_AREA( #297 );
#228 = ORIENTED_EDGE( '', *, *, #298, .T. );
#229 = ORIENTED_EDGE( '', *, *, #299, .F. );
#230 = SURFACE_STYLE_FILL_AREA( #300 );
#231 = ORIENTED_EDGE( '', *, *, #301, .F. );
#232 = ORIENTED_EDGE( '', *, *, #302, .T. );
#233 = CARTESIAN_POINT( '', ( 0.000000000000000, -2.00000000000000, 0.000000000000000 ) );
#234 = DIRECTION( '', ( -0.000000000000000, 1.00000000000000, 0.000000000000000 ) );
#235 = DIRECTION( '', ( 0.000000000000000, 0.000000000000000, -1.00000000000000 ) );
#236 = SURFACE_STYLE_FILL_AREA( #303 );
#237 = ORIENTED_EDGE( '', *, *, #304, .F. );
#238 = ORIENTED_EDGE( '', *, *, #301, .T. );
#239 = CARTESIAN_POINT( '', ( 40.0000000000000, 0.000000000000000, 0.000000000000000 ) );
#240 = DIRECTION( '', ( 0.000000000000000, 1.00000000000000, 0.000000000000000 ) );
#241 = DIRECTION( '', ( 0.000000000000000, -0.000000000000000, 1.00000000000000 ) );
#242 = SURFACE_STYLE_FILL_AREA( #305 );
#243 = ORIENTED_EDGE( '', *, *, #306, .F. );
#244 = ORIENTED_EDGE( '', *, *, #307, .T. );
#245 = CARTESIAN_POINT( '', ( 35.2000000000000, -2.00000000000000, 0.000000000000000 ) );
#246 = DIRECTION( '', ( 0.000000000000000, 1.00000000000000, 0.000000000000000 ) );
#247 = DIRECTION( '', ( 0.000000000000000, -0.000000000000000, 1.00000000000000 ) );
#248 = SURFACE_STYLE_FILL_AREA( #308 );
#249 = ORIENTED_EDGE( '', *, *, #306, .T. );
#250 = ORIENTED_EDGE( '', *, *, #309, .F. );
#251 = CARTESIAN_POINT( '', ( 27.5000000000000, -2.01000000000000, 0.000000000000000 ) );
#252 = DIRECTION( '', ( -0.000000000000000, 1.00000000000000, 0.000000000000000 ) );
#253 = DIRECTION( '', ( 0.000000000000000, 0.000000000000000, -1.00000000000000 ) );
#254 = SURFACE_STYLE_FILL_AREA( #310 );
#255 = ORIENTED_EDGE( '', *, *, #309, .T. );
#256 = CARTESIAN_POINT( '', ( 27.5000000000000, 5.49000000000000, 0.000000000000000 ) );
#257 = DIRECTION( '', ( 0.000000000000000, -1.00000000000000, -0.000000000000000 ) );
#258 = DIRECTION( '', ( 0.000000000000000, 0.000000000000000, -1.00000000000000 ) );
#259 = SURFACE_STYLE_FILL_AREA( #311 );
#260 = ORIENTED_EDGE( '', *, *, #312, .T. );
#261 = ORIENTED_EDGE( '', *, *, #313, .F. );
#262 = CARTESIAN_POINT( '', ( 0.000000000000000, 10.5000000000000, 0.000000000000000 ) );
#263 = DIRECTION( '', ( -0.000000000000000, -1.00000000000000, -0.000000000000000 ) );
#264 = DIRECTION( '', ( 0.000000000000000, 0.000000000000000, -1.00000000000000 ) );
#265 = SURFACE_STYLE_FILL_AREA( #314 );
#266 = ORIENTED_EDGE( '', *, *, #313, .T. );
#267 = ORIENTED_EDGE( '', *, *, #295, .F. );
#268 = CARTESIAN_POINT( '', ( 0.000000000000000, 9.50000000000000, 0.000000000000000 ) );
#269 = DIRECTION( '', ( -0.000000000000000, 1.00000000000000, 0.000000000000000 ) );
#270 = DIRECTION( '', ( 0.000000000000000, -0.000000000000000, 1.00000000000000 ) );
#271 = SURFACE_STYLE_FILL_AREA( #315 );
#272 = ORIENTED_EDGE( '', *, *, #312, .F. );
#273 = CARTESIAN_POINT( '', ( 11.2500000000000, 0.000000000000000, 0.000000000000000 ) );
#274 = DIRECTION( '', ( 0.000000000000000, 1.00000000000000, 0.000000000000000 ) );
#275 = DIRECTION( '', ( 0.000000000000000, -0.000000000000000, 1.00000000000000 ) );
#276 = SURFACE_STYLE_FILL_AREA( #316 );
#277 = ORIENTED_EDGE( '', *, *, #307, .F. );
#278 = ORIENTED_EDGE( '', *, *, #304, .T. );
#279 = CARTESIAN_POINT( '', ( 0.000000000000000, -2.00000000000000, 0.000000000000000 ) );
#280 = DIRECTION( '', ( -0.000000000000000, 1.00000000000000, 0.000000000000000 ) );
#281 = DIRECTION( '', ( 0.000000000000000, 0.000000000000000, -1.00000000000000 ) );
#282 = SURFACE_STYLE_FILL_AREA( #317 );
#283 = ORIENTED_EDGE( '', *, *, #296, .T. );
#284 = ORIENTED_EDGE( '', *, *, #298, .F. );
#285 = CARTESIAN_POINT( '', ( 0.000000000000000, 18.0000000000000, 0.000000000000000 ) );
#286 = DIRECTION( '', ( -0.000000000000000, 1.00000000000000, 0.000000000000000 ) );
#287 = DIRECTION( '', ( 0.000000000000000, -0.000000000000000, 1.00000000000000 ) );
#288 = SURFACE_STYLE_FILL_AREA( #318 );
#289 = ORIENTED_EDGE( '', *, *, #299, .T. );
#290 = ORIENTED_EDGE( '', *, *, #302, .F. );
#291 = CARTESIAN_POINT( '', ( 0.000000000000000, 9.16778707836437, 0.000000000000000 ) );
#292 = DIRECTION( '', ( 0.000000000000000, -1.00000000000000, -0.000000000000000 ) );
#293 = DIRECTION( '', ( 0.000000000000000, 0.000000000000000, -1.00000000000000 ) );
#294 = FILL_AREA_STYLE( '', ( #319 ) );
#295 = EDGE_CURVE( '', #320, #320, #321, .T. );
#296 = EDGE_CURVE( '', #322, #322, #323, .T. );
#297 = FILL_AREA_STYLE( '', ( #324 ) );
#298 = EDGE_CURVE( '', #325, #325, #326, .T. );
#299 = EDGE_CURVE( '', #327, #327, #328, .T. );
#300 = FILL_AREA_STYLE( '', ( #329 ) );
#301 = EDGE_CURVE( '', #330, #330, #331, .T. );
#302 = EDGE_CURVE( '', #332, #332, #333, .T. );
#303 = FILL_AREA_STYLE( '', ( #334 ) );
#304 = EDGE_CURVE( '', #335, #335, #336, .T. );
#305 = FILL_AREA_STYLE( '', ( #337 ) );
#306 = EDGE_CURVE( '', #338, #338, #339, .F. );
#307 = EDGE_CURVE( '', #340, #340, #341, .T. );
#308 = FILL_AREA_STYLE( '', ( #342 ) );
#309 = EDGE_CURVE( '', #343, #343, #344, .T. );
#310 = FILL_AREA_STYLE( '', ( #345 ) );
#311 = FILL_AREA_STYLE( '', ( #346 ) );
#312 = EDGE_CURVE( '', #347, #347, #348, .T. );
#313 = EDGE_CURVE( '', #349, #349, #350, .T. );
#314 = FILL_AREA_STYLE( '', ( #351 ) );
#315 = FILL_AREA_STYLE( '', ( #352 ) );
#316 = FILL_AREA_STYLE( '', ( #353 ) );
#317 = FILL_AREA_STYLE( '', ( #354 ) );
#318 = FILL_AREA_STYLE( '', ( #355 ) );
#319 = FILL_AREA_STYLE_COLOUR( '', #356 );
#320 = VERTEX_POINT( '', #357 );
#321 = CIRCLE( '', #358, 7.00000000000000 );
#322 = VERTEX_POINT( '', #359 );
#323 = CIRCLE( '', #360, 6.50000000000000 );
#324 = FILL_AREA_STYLE_COLOUR( '', #361 );
#325 = VERTEX_POINT( '', #362 );
#326 = CIRCLE( '', #363, 11.0000000000000 );
#327 = VERTEX_POINT( '', #364 );
#328 = CIRCLE( '', #365, 37.2732431162000 );
#329 = FILL_AREA_STYLE_COLOUR( '', #366 );
#330 = VERTEX_POINT( '', #367 );
#331 = CIRCLE( '', #368, 40.0000000000000 );
#332 = VERTEX_POINT( '', #369 );
#333 = CIRCLE( '', #370, 40.0000000000000 );
#334 = FILL_AREA_STYLE_COLOUR( '', #371 );
#335 = VERTEX_POINT( '', #372 );
#336 = CIRCLE( '', #373, 35.2000000000000 );
#337 = FILL_AREA_STYLE_COLOUR( '', #374 );
#338 = VERTEX_POINT( '', #375 );
#339 = CIRCLE( '', #376, 4.50000000000000 );
#340 = VERTEX_POINT( '', #377 );
#341 = CIRCLE( '', #378, 35.2000000000000 );
#342 = FILL_AREA_STYLE_COLOUR( '', #379 );
#343 = VERTEX_POINT( '', #380 );
#344 = CIRCLE( '', #381, 4.50000000000000 );
#345 = FILL_AREA_STYLE_COLOUR( '', #382 );
#346 = FILL_AREA_STYLE_COLOUR( '', #383 );
#347 = VERTEX_POINT( '', #384 );
#348 = CIRCLE( '', #385, 11.2500000000000 );
#349 = VERTEX_POINT( '', #386 );
#350 = CIRCLE( '', #387, 9.59210526320000 );
#351 = FILL_AREA_STYLE_COLOUR( '', #388 );
#352 = FILL_AREA_STYLE_COLOUR( '', #389 );
#353 = FILL_AREA_STYLE_COLOUR( '', #390 );
#354 = FILL_AREA_STYLE_COLOUR( '', #391 );
#355 = FILL_AREA_STYLE_COLOUR( '', #392 );
#356 = COLOUR_RGB( '', 0.689999997600000, 0.689999997600000, 0.689999997600000 );
#357 = CARTESIAN_POINT( '', ( 0.000000000000000, 9.50000000000000, -6.99999999999999 ) );
#358 = AXIS2_PLACEMENT_3D( '', #393, #394, #395 );
#359 = CARTESIAN_POINT( '', ( 0.000000000000000, 15.5000000000000, -6.49999999999999 ) );
#360 = AXIS2_PLACEMENT_3D( '', #396, #397, #398 );
#361 = COLOUR_RGB( '', 0.689999997600000, 0.689999997600000, 0.689999997600000 );
#362 = CARTESIAN_POINT( '', ( 0.000000000000000, 18.0000000000000, -10.9999999999998 ) );
#363 = AXIS2_PLACEMENT_3D( '', #399, #400, #401 );
#364 = CARTESIAN_POINT( '', ( 0.000000000000000, 12.9597327487303, -37.2732431162167 ) );
#365 = AXIS2_PLACEMENT_3D( '', #402, #403, #404 );
#366 = COLOUR_RGB( '', 0.689999997600000, 0.689999997600000, 0.689999997600000 );
#367 = CARTESIAN_POINT( '', ( 0.000000000000000, 0.000000000000000, -40.0000000000000 ) );
#368 = AXIS2_PLACEMENT_3D( '', #405, #406, #407 );
#369 = CARTESIAN_POINT( '', ( 0.000000000000000, 9.16778707836434, -40.0000000000000 ) );
#370 = AXIS2_PLACEMENT_3D( '', #408, #409, #410 );
#371 = COLOUR_RGB( '', 0.689999997600000, 0.689999997600000, 0.689999997600000 );
#372 = CARTESIAN_POINT( '', ( 0.000000000000000, 0.000000000000000, -35.2000000000000 ) );
#373 = AXIS2_PLACEMENT_3D( '', #411, #412, #413 );
#374 = COLOUR_RGB( '', 0.689999997600000, 0.689999997600000, 0.689999997600000 );
#375 = CARTESIAN_POINT( '', ( 27.5000000000000, -2.00000000000000, 4.50000000000000 ) );
#376 = AXIS2_PLACEMENT_3D( '', #414, #415, #416 );
#377 = CARTESIAN_POINT( '', ( 0.000000000000000, -2.00000000000000, -35.2000000000000 ) );
#378 = AXIS2_PLACEMENT_3D( '', #417, #418, #419 );
#379 = COLOUR_RGB( '', 0.689999997600000, 0.689999997600000, 0.689999997600000 );
#380 = CARTESIAN_POINT( '', ( 27.5000000000000, 5.49000000000000, -4.50000000000000 ) );
#381 = AXIS2_PLACEMENT_3D( '', #420, #421, #422 );
#382 = COLOUR_RGB( '', 0.689999997600000, 0.689999997600000, 0.689999997600000 );
#383 = COLOUR_RGB( '', 0.689999997600000, 0.689999997600000, 0.689999997600000 );
#384 = CARTESIAN_POINT( '', ( 0.000000000000000, 0.000000000000000, -11.2500000000000 ) );
#385 = AXIS2_PLACEMENT_3D( '', #423, #424, #425 );
#386 = CARTESIAN_POINT( '', ( 0.000000000000000, 10.5000000000000, -9.59210526315790 ) );
#387 = AXIS2_PLACEMENT_3D( '', #426, #427, #428 );
#388 = COLOUR_RGB( '', 0.689999997600000, 0.689999997600000, 0.689999997600000 );
#389 = COLOUR_RGB( '', 0.689999997600000, 0.689999997600000, 0.689999997600000 );
#390 = COLOUR_RGB( '', 0.689999997600000, 0.689999997600000, 0.689999997600000 );
#391 = COLOUR_RGB( '', 0.689999997600000, 0.689999997600000, 0.689999997600000 );
#392 = COLOUR_RGB( '', 0.689999997600000, 0.689999997600000, 0.689999997600000 );
#393 = CARTESIAN_POINT( '', ( 0.000000000000000, 9.50000000000000, 0.000000000000000 ) );
#394 = DIRECTION( '', ( 0.000000000000000, -1.00000000000000, -0.000000000000000 ) );
#395 = DIRECTION( '', ( 0.000000000000000, 0.000000000000000, -1.00000000000000 ) );
#396 = CARTESIAN_POINT( '', ( 0.000000000000000, 15.5000000000000, 0.000000000000000 ) );
#397 = DIRECTION( '', ( 0.000000000000000, -1.00000000000000, -0.000000000000000 ) );
#398 = DIRECTION( '', ( 0.000000000000000, 0.000000000000000, -1.00000000000000 ) );
#399 = CARTESIAN_POINT( '', ( 0.000000000000000, 18.0000000000000, 0.000000000000000 ) );
#400 = DIRECTION( '', ( 0.000000000000000, -1.00000000000000, -0.000000000000000 ) );
#401 = DIRECTION( '', ( 0.000000000000000, 0.000000000000000, -1.00000000000000 ) );
#402 = CARTESIAN_POINT( '', ( 0.000000000000000, 12.9597327487303, 0.000000000000000 ) );
#403 = DIRECTION( '', ( 0.000000000000000, -1.00000000000000, -0.000000000000000 ) );
#404 = DIRECTION( '', ( 0.000000000000000, 0.000000000000000, -1.00000000000000 ) );
#405 = CARTESIAN_POINT( '', ( 0.000000000000000, 0.000000000000000, 0.000000000000000 ) );
#406 = DIRECTION( '', ( 0.000000000000000, -1.00000000000000, -0.000000000000000 ) );
#407 = DIRECTION( '', ( 0.000000000000000, 0.000000000000000, -1.00000000000000 ) );
#408 = CARTESIAN_POINT( '', ( 0.000000000000000, 9.16778707836434, 0.000000000000000 ) );
#409 = DIRECTION( '', ( 0.000000000000000, -1.00000000000000, -0.000000000000000 ) );
#410 = DIRECTION( '', ( 0.000000000000000, 0.000000000000000, -1.00000000000000 ) );
#411 = CARTESIAN_POINT( '', ( 0.000000000000000, 0.000000000000000, 0.000000000000000 ) );
#412 = DIRECTION( '', ( 0.000000000000000, -1.00000000000000, -0.000000000000000 ) );
#413 = DIRECTION( '', ( 0.000000000000000, 0.000000000000000, -1.00000000000000 ) );
#414 = CARTESIAN_POINT( '', ( 27.5000000000000, -2.00000000000000, 0.000000000000000 ) );
#415 = DIRECTION( '', ( 0.000000000000000, 1.00000000000000, 0.000000000000000 ) );
#416 = DIRECTION( '', ( 0.000000000000000, -0.000000000000000, 1.00000000000000 ) );
#417 = CARTESIAN_POINT( '', ( 0.000000000000000, -2.00000000000000, 0.000000000000000 ) );
#418 = DIRECTION( '', ( 0.000000000000000, -1.00000000000000, -0.000000000000000 ) );
#419 = DIRECTION( '', ( 0.000000000000000, 0.000000000000000, -1.00000000000000 ) );
#420 = CARTESIAN_POINT( '', ( 27.5000000000000, 5.49000000000000, 0.000000000000000 ) );
#421 = DIRECTION( '', ( 0.000000000000000, -1.00000000000000, -0.000000000000000 ) );
#422 = DIRECTION( '', ( 0.000000000000000, 0.000000000000000, -1.00000000000000 ) );
#423 = CARTESIAN_POINT( '', ( 0.000000000000000, 0.000000000000000, 0.000000000000000 ) );
#424 = DIRECTION( '', ( 0.000000000000000, -1.00000000000000, -0.000000000000000 ) );
#425 = DIRECTION( '', ( 0.000000000000000, 0.000000000000000, -1.00000000000000 ) );
#426 = CARTESIAN_POINT( '', ( 0.000000000000000, 10.5000000000000, 0.000000000000000 ) );
#427 = DIRECTION( '', ( 0.000000000000000, -1.00000000000000, -0.000000000000000 ) );
#428 = DIRECTION( '', ( 0.000000000000000, 0.000000000000000, -1.00000000000000 ) );
ENDSEC;
END-ISO-10303-21;
