ISO-10303-21;
HEADER;
FILE_DESCRIPTION( ( 'STEP AP214' ), '1' );
FILE_NAME( '//goodhand-server/Shared Folders/GoodHand Data/Kipp CAD/K0416/K0416.21201.stp', '2020-12-07T14:34:01', ( '' ), ( '' ), ' ', 'PARTsolutions', ' ' );
FILE_SCHEMA( ( 'AUTOMOTIVE_DESIGN { 1 0 10303 214 1 1 1 1 }' ) );
ENDSEC;
DATA;
#1 = MECHANICAL_DESIGN_GEOMETRIC_PRESENTATION_REPRESENTATION( ' ', ( #10, #11, #12, #13, #14, #15, #16, #17, #18 ), #6 );
#2 = PRODUCT_DEFINITION_CONTEXT( '', #19, 'design' );
#3 = APPLICATION_PROTOCOL_DEFINITION( 'international standard', 'automotive_design', 2001, #19 );
#4 = PRODUCT_CATEGORY_RELATIONSHIP( 'NONE', 'NONE', #20, #21 );
#5 = SHAPE_DEFINITION_REPRESENTATION( #22, #23 );
#6 =  ( GEOMETRIC_REPRESENTATION_CONTEXT( 3 )GLOBAL_UNCERTAINTY_ASSIGNED_CONTEXT( ( #26 ) )GLOBAL_UNIT_ASSIGNED_CONTEXT( ( #28, #29, #30 ) )REPRESENTATION_CONTEXT( 'NONE', 'WORKSPACE' ) );
#10 = STYLED_ITEM( '', ( #32 ), #33 );
#11 = STYLED_ITEM( '', ( #34 ), #35 );
#12 = STYLED_ITEM( '', ( #36 ), #37 );
#13 = STYLED_ITEM( '', ( #38 ), #39 );
#14 = STYLED_ITEM( '', ( #40 ), #41 );
#15 = STYLED_ITEM( '', ( #42 ), #43 );
#16 = STYLED_ITEM( '', ( #44 ), #45 );
#17 = STYLED_ITEM( '', ( #46 ), #47 );
#18 = STYLED_ITEM( '', ( #48 ), #49 );
#19 = APPLICATION_CONTEXT( 'core data for automotive mechanical design processes' );
#20 = PRODUCT_CATEGORY( 'part', 'NONE' );
#21 = PRODUCT_RELATED_PRODUCT_CATEGORY( 'detail', ' ', ( #50 ) );
#22 = PRODUCT_DEFINITION_SHAPE( 'NONE', 'NONE', #51 );
#23 = ADVANCED_BREP_SHAPE_REPRESENTATION( '_K0416.21201', ( #52, #53 ), #6 );
#26 = UNCERTAINTY_MEASURE_WITH_UNIT( LENGTH_MEASURE( 0.00100000000000000 ), #28, '', '' );
#28 =  ( CONVERSION_BASED_UNIT( 'MILLIMETRE', #56 )LENGTH_UNIT(  )NAMED_UNIT( #59 ) );
#29 =  ( NAMED_UNIT( #61 )PLANE_ANGLE_UNIT(  )SI_UNIT( $, .RADIAN. ) );
#30 =  ( NAMED_UNIT( #61 )SI_UNIT( $, .STERADIAN. )SOLID_ANGLE_UNIT(  ) );
#32 = PRESENTATION_STYLE_ASSIGNMENT( ( #67 ) );
#33 = ADVANCED_FACE( '', ( #68, #69 ), #70, .T. );
#34 = PRESENTATION_STYLE_ASSIGNMENT( ( #71 ) );
#35 = ADVANCED_FACE( '', ( #72, #73 ), #74, .F. );
#36 = PRESENTATION_STYLE_ASSIGNMENT( ( #75 ) );
#37 = ADVANCED_FACE( '', ( #76, #77 ), #78, .T. );
#38 = PRESENTATION_STYLE_ASSIGNMENT( ( #79 ) );
#39 = ADVANCED_FACE( '', ( #80, #81 ), #82, .F. );
#40 = PRESENTATION_STYLE_ASSIGNMENT( ( #83 ) );
#41 = ADVANCED_FACE( '', ( #84 ), #85, .T. );
#42 = PRESENTATION_STYLE_ASSIGNMENT( ( #86 ) );
#43 = ADVANCED_FACE( '', ( #87, #88 ), #89, .T. );
#44 = PRESENTATION_STYLE_ASSIGNMENT( ( #90 ) );
#45 = ADVANCED_FACE( '', ( #91, #92 ), #93, .F. );
#46 = PRESENTATION_STYLE_ASSIGNMENT( ( #94 ) );
#47 = ADVANCED_FACE( '', ( #95, #96 ), #97, .F. );
#48 = PRESENTATION_STYLE_ASSIGNMENT( ( #98 ) );
#49 = ADVANCED_FACE( '', ( #99, #100 ), #101, .T. );
#50 = PRODUCT( '_K0416.21201', '_K0416.21201', 'PART-_K0416.21201-DESC', ( #102 ) );
#51 = PRODUCT_DEFINITION( 'NONE', 'NONE', #103, #2 );
#52 = MANIFOLD_SOLID_BREP( '_K0416.21201', #104 );
#53 = AXIS2_PLACEMENT_3D( '', #105, #106, #107 );
#56 = LENGTH_MEASURE_WITH_UNIT( LENGTH_MEASURE( 1.00000000000000 ), #108 );
#59 = DIMENSIONAL_EXPONENTS( 1.00000000000000, 0.000000000000000, 0.000000000000000, 0.000000000000000, 0.000000000000000, 0.000000000000000, 0.000000000000000 );
#61 = DIMENSIONAL_EXPONENTS( 0.000000000000000, 0.000000000000000, 0.000000000000000, 0.000000000000000, 0.000000000000000, 0.000000000000000, 0.000000000000000 );
#67 = SURFACE_STYLE_USAGE( .BOTH., #109 );
#68 = FACE_OUTER_BOUND( '', #110, .T. );
#69 = FACE_OUTER_BOUND( '', #111, .T. );
#70 = CYLINDRICAL_SURFACE( '', #112, 60.0000000000000 );
#71 = SURFACE_STYLE_USAGE( .BOTH., #113 );
#72 = FACE_OUTER_BOUND( '', #114, .T. );
#73 = FACE_OUTER_BOUND( '', #115, .T. );
#74 = CYLINDRICAL_SURFACE( '', #116, 4.50000000000000 );
#75 = SURFACE_STYLE_USAGE( .BOTH., #117 );
#76 = FACE_OUTER_BOUND( '', #118, .T. );
#77 = FACE_OUTER_BOUND( '', #119, .T. );
#78 = TOROIDAL_SURFACE( '', #120, 52.0000000000000, 8.00000000000000 );
#79 = SURFACE_STYLE_USAGE( .BOTH., #121 );
#80 = FACE_BOUND( '', #122, .T. );
#81 = FACE_OUTER_BOUND( '', #123, .T. );
#82 = PLANE( '', #124 );
#83 = SURFACE_STYLE_USAGE( .BOTH., #125 );
#84 = FACE_OUTER_BOUND( '', #126, .T. );
#85 = PLANE( '', #127 );
#86 = SURFACE_STYLE_USAGE( .BOTH., #128 );
#87 = FACE_OUTER_BOUND( '', #129, .T. );
#88 = FACE_OUTER_BOUND( '', #130, .T. );
#89 = CYLINDRICAL_SURFACE( '', #131, 52.8000000000000 );
#90 = SURFACE_STYLE_USAGE( .BOTH., #132 );
#91 = FACE_BOUND( '', #133, .T. );
#92 = FACE_OUTER_BOUND( '', #134, .T. );
#93 = PLANE( '', #135 );
#94 = SURFACE_STYLE_USAGE( .BOTH., #136 );
#95 = FACE_BOUND( '', #137, .T. );
#96 = FACE_OUTER_BOUND( '', #138, .T. );
#97 = SPHERICAL_SURFACE( '', #139, 7.50000000000000 );
#98 = SURFACE_STYLE_USAGE( .BOTH., #140 );
#99 = FACE_OUTER_BOUND( '', #141, .T. );
#100 = FACE_OUTER_BOUND( '', #142, .T. );
#101 = ( BOUNDED_SURFACE(  )B_SPLINE_SURFACE( 3, 3, ( ( #145, #146, #147, #148, #149, #150, #151 ), ( #152, #153, #154, #155, #156, #157, #158 ), ( #159, #160, #161, #162, #163, #164, #165 ), ( #166, #167, #168, #169, #170, #171, #172 ) ), .UNSPECIFIED., .F., .T., .F. )B_SPLINE_SURFACE_WITH_KNOTS( ( 4, 4 ), ( 4, 3, 4 ), ( 0.000000000000000, 6.28318530717959 ), ( -1.54800407434771, -1.39330137023546, -1.23859866612321 ), .UNSPECIFIED. )GEOMETRIC_REPRESENTATION_ITEM(  )RATIONAL_B_SPLINE_SURFACE( ( ( 1.00000000000000, 0.333333333333333, 0.333333333333333, 1.00000000000000, 0.333333333333333, 0.333333333333333, 1.00000000000000 ), ( 0.992038255786407, 0.330679418595469, 0.330679418595469, 0.992038255786407, 0.330679418595469, 0.330679418595469, 0.992038255786407 ), ( 0.992038255786407, 0.330679418595469, 0.330679418595469, 0.992038255786407, 0.330679418595469, 0.330679418595469, 0.992038255786407 ), ( 1.00000000000000, 0.333333333333333, 0.333333333333333, 1.00000000000000, 0.333333333333333, 0.333333333333333, 1.00000000000000 ) ) )REPRESENTATION_ITEM( '' )SURFACE(  ) );
#102 = PRODUCT_CONTEXT( '', #19, 'mechanical' );
#103 = PRODUCT_DEFINITION_FORMATION_WITH_SPECIFIED_SOURCE( ' ', 'NONE', #50, .NOT_KNOWN. );
#104 = CLOSED_SHELL( '', ( #41, #35, #47, #49, #37, #33, #39, #43, #45 ) );
#105 = CARTESIAN_POINT( '', ( 0.000000000000000, 0.000000000000000, 0.000000000000000 ) );
#106 = DIRECTION( '', ( 0.000000000000000, 0.000000000000000, 1.00000000000000 ) );
#107 = DIRECTION( '', ( 1.00000000000000, 0.000000000000000, 0.000000000000000 ) );
#108 =  ( LENGTH_UNIT(  )NAMED_UNIT( #59 )SI_UNIT( .MILLI., .METRE. ) );
#109 = SURFACE_SIDE_STYLE( '', ( #179 ) );
#110 = EDGE_LOOP( '', ( #180 ) );
#111 = EDGE_LOOP( '', ( #181 ) );
#112 = AXIS2_PLACEMENT_3D( '', #182, #183, #184 );
#113 = SURFACE_SIDE_STYLE( '', ( #185 ) );
#114 = EDGE_LOOP( '', ( #186 ) );
#115 = EDGE_LOOP( '', ( #187 ) );
#116 = AXIS2_PLACEMENT_3D( '', #188, #189, #190 );
#117 = SURFACE_SIDE_STYLE( '', ( #191 ) );
#118 = EDGE_LOOP( '', ( #192 ) );
#119 = EDGE_LOOP( '', ( #193 ) );
#120 = AXIS2_PLACEMENT_3D( '', #194, #195, #196 );
#121 = SURFACE_SIDE_STYLE( '', ( #197 ) );
#122 = EDGE_LOOP( '', ( #198 ) );
#123 = EDGE_LOOP( '', ( #199 ) );
#124 = AXIS2_PLACEMENT_3D( '', #200, #201, #202 );
#125 = SURFACE_SIDE_STYLE( '', ( #203 ) );
#126 = EDGE_LOOP( '', ( #204 ) );
#127 = AXIS2_PLACEMENT_3D( '', #205, #206, #207 );
#128 = SURFACE_SIDE_STYLE( '', ( #208 ) );
#129 = EDGE_LOOP( '', ( #209 ) );
#130 = EDGE_LOOP( '', ( #210 ) );
#131 = AXIS2_PLACEMENT_3D( '', #211, #212, #213 );
#132 = SURFACE_SIDE_STYLE( '', ( #214 ) );
#133 = EDGE_LOOP( '', ( #215 ) );
#134 = EDGE_LOOP( '', ( #216 ) );
#135 = AXIS2_PLACEMENT_3D( '', #217, #218, #219 );
#136 = SURFACE_SIDE_STYLE( '', ( #220 ) );
#137 = VERTEX_LOOP( '', #221 );
#138 = EDGE_LOOP( '', ( #222 ) );
#139 = AXIS2_PLACEMENT_3D( '', #223, #224, #225 );
#140 = SURFACE_SIDE_STYLE( '', ( #226 ) );
#141 = EDGE_LOOP( '', ( #227 ) );
#142 = EDGE_LOOP( '', ( #228 ) );
#145 = CARTESIAN_POINT( '', ( 0.000000000000000, 9.47100794887523, -54.6089705940514 ) );
#146 = CARTESIAN_POINT( '', ( 109.217941188103, 9.47100794887523, -54.6089705940514 ) );
#147 = CARTESIAN_POINT( '', ( 109.217941188103, 9.47100794887523, 54.6089705940514 ) );
#148 = CARTESIAN_POINT( '', ( 0.000000000000000, 9.47100794887523, 54.6089705940514 ) );
#149 = CARTESIAN_POINT( '', ( -109.217941188103, 9.47100794887523, 54.6089705940514 ) );
#150 = CARTESIAN_POINT( '', ( -109.217941188103, 9.47100794887523, -54.6089705940514 ) );
#151 = CARTESIAN_POINT( '', ( 0.000000000000000, 9.47100794887523, -54.6089705940514 ) );
#152 = CARTESIAN_POINT( '', ( 0.000000000000000, 14.7632738014800, -39.2682789130441 ) );
#153 = CARTESIAN_POINT( '', ( 78.5365578260881, 14.7632738014800, -39.2682789130440 ) );
#154 = CARTESIAN_POINT( '', ( 78.5365578260881, 14.7632738014800, 39.2682789130440 ) );
#155 = CARTESIAN_POINT( '', ( 0.000000000000000, 14.7632738014800, 39.2682789130441 ) );
#156 = CARTESIAN_POINT( '', ( -78.5365578260881, 14.7632738014800, 39.2682789130440 ) );
#157 = CARTESIAN_POINT( '', ( -78.5365578260881, 14.7632738014800, -39.2682789130440 ) );
#158 = CARTESIAN_POINT( '', ( 0.000000000000000, 14.7632738014800, -39.2682789130441 ) );
#159 = CARTESIAN_POINT( '', ( 0.000000000000000, 17.6285448016733, -23.2953292417459 ) );
#160 = CARTESIAN_POINT( '', ( 46.5906584834918, 17.6285448016733, -23.2953292417459 ) );
#161 = CARTESIAN_POINT( '', ( 46.5906584834918, 17.6285448016733, 23.2953292417459 ) );
#162 = CARTESIAN_POINT( '', ( 0.000000000000000, 17.6285448016733, 23.2953292417459 ) );
#163 = CARTESIAN_POINT( '', ( -46.5906584834918, 17.6285448016733, 23.2953292417459 ) );
#164 = CARTESIAN_POINT( '', ( -46.5906584834918, 17.6285448016733, -23.2953292417459 ) );
#165 = CARTESIAN_POINT( '', ( 0.000000000000000, 17.6285448016733, -23.2953292417459 ) );
#166 = CARTESIAN_POINT( '', ( 0.000000000000000, 17.9983832850367, -7.07163919901527 ) );
#167 = CARTESIAN_POINT( '', ( 14.1432783980305, 17.9983832850367, -7.07163919901527 ) );
#168 = CARTESIAN_POINT( '', ( 14.1432783980305, 17.9983832850367, 7.07163919901527 ) );
#169 = CARTESIAN_POINT( '', ( 0.000000000000000, 17.9983832850367, 7.07163919901527 ) );
#170 = CARTESIAN_POINT( '', ( -14.1432783980305, 17.9983832850367, 7.07163919901527 ) );
#171 = CARTESIAN_POINT( '', ( -14.1432783980305, 17.9983832850367, -7.07163919901527 ) );
#172 = CARTESIAN_POINT( '', ( 0.000000000000000, 17.9983832850367, -7.07163919901527 ) );
#179 = SURFACE_STYLE_FILL_AREA( #229 );
#180 = ORIENTED_EDGE( '', *, *, #230, .F. );
#181 = ORIENTED_EDGE( '', *, *, #231, .T. );
#182 = CARTESIAN_POINT( '', ( 0.000000000000000, -2.00000000000000, 0.000000000000000 ) );
#183 = DIRECTION( '', ( -0.000000000000000, 1.00000000000000, 0.000000000000000 ) );
#184 = DIRECTION( '', ( 0.000000000000000, 0.000000000000000, -1.00000000000000 ) );
#185 = SURFACE_STYLE_FILL_AREA( #232 );
#186 = ORIENTED_EDGE( '', *, *, #233, .T. );
#187 = ORIENTED_EDGE( '', *, *, #234, .T. );
#188 = CARTESIAN_POINT( '', ( 0.000000000000000, 5.49000000000000, 0.000000000000000 ) );
#189 = DIRECTION( '', ( 0.000000000000000, -1.00000000000000, -0.000000000000000 ) );
#190 = DIRECTION( '', ( 0.000000000000000, 0.000000000000000, 1.00000000000000 ) );
#191 = SURFACE_STYLE_FILL_AREA( #235 );
#192 = ORIENTED_EDGE( '', *, *, #236, .T. );
#193 = ORIENTED_EDGE( '', *, *, #231, .F. );
#194 = CARTESIAN_POINT( '', ( 0.000000000000000, 1.90838456546019, 0.000000000000000 ) );
#195 = DIRECTION( '', ( 0.000000000000000, -1.00000000000000, -0.000000000000000 ) );
#196 = DIRECTION( '', ( 0.000000000000000, 0.000000000000000, -1.00000000000000 ) );
#197 = SURFACE_STYLE_FILL_AREA( #237 );
#198 = ORIENTED_EDGE( '', *, *, #238, .F. );
#199 = ORIENTED_EDGE( '', *, *, #230, .T. );
#200 = CARTESIAN_POINT( '', ( 60.0000000000000, 0.000000000000000, 0.000000000000000 ) );
#201 = DIRECTION( '', ( 0.000000000000000, 1.00000000000000, 0.000000000000000 ) );
#202 = DIRECTION( '', ( 0.000000000000000, -0.000000000000000, 1.00000000000000 ) );
#203 = SURFACE_STYLE_FILL_AREA( #239 );
#204 = ORIENTED_EDGE( '', *, *, #233, .F. );
#205 = CARTESIAN_POINT( '', ( 0.000000000000000, 5.49000000000000, 0.000000000000000 ) );
#206 = DIRECTION( '', ( 0.000000000000000, -1.00000000000000, -0.000000000000000 ) );
#207 = DIRECTION( '', ( 0.000000000000000, 0.000000000000000, -1.00000000000000 ) );
#208 = SURFACE_STYLE_FILL_AREA( #240 );
#209 = ORIENTED_EDGE( '', *, *, #241, .F. );
#210 = ORIENTED_EDGE( '', *, *, #238, .T. );
#211 = CARTESIAN_POINT( '', ( 0.000000000000000, -2.00000000000000, 0.000000000000000 ) );
#212 = DIRECTION( '', ( -0.000000000000000, 1.00000000000000, 0.000000000000000 ) );
#213 = DIRECTION( '', ( 0.000000000000000, 0.000000000000000, -1.00000000000000 ) );
#214 = SURFACE_STYLE_FILL_AREA( #242 );
#215 = ORIENTED_EDGE( '', *, *, #234, .F. );
#216 = ORIENTED_EDGE( '', *, *, #241, .T. );
#217 = CARTESIAN_POINT( '', ( 52.8000000000000, -2.00000000000000, 0.000000000000000 ) );
#218 = DIRECTION( '', ( 0.000000000000000, 1.00000000000000, 0.000000000000000 ) );
#219 = DIRECTION( '', ( 0.000000000000000, -0.000000000000000, 1.00000000000000 ) );
#220 = SURFACE_STYLE_FILL_AREA( #243 );
#221 = VERTEX_POINT( '', #244 );
#222 = ORIENTED_EDGE( '', *, *, #245, .F. );
#223 = CARTESIAN_POINT( '', ( -1.30104260698261E-15, 15.5000000000000, 0.000000000000000 ) );
#224 = DIRECTION( '', ( 0.000000000000000, -1.00000000000000, 0.000000000000000 ) );
#225 = DIRECTION( '', ( -1.00000000000000, 0.000000000000000, 0.000000000000000 ) );
#226 = SURFACE_STYLE_FILL_AREA( #246 );
#227 = ORIENTED_EDGE( '', *, *, #245, .T. );
#228 = ORIENTED_EDGE( '', *, *, #236, .F. );
#229 = FILL_AREA_STYLE( '', ( #247 ) );
#230 = EDGE_CURVE( '', #248, #248, #249, .T. );
#231 = EDGE_CURVE( '', #250, #250, #251, .T. );
#232 = FILL_AREA_STYLE( '', ( #252 ) );
#233 = EDGE_CURVE( '', #253, #253, #254, .T. );
#234 = EDGE_CURVE( '', #255, #255, #256, .F. );
#235 = FILL_AREA_STYLE( '', ( #257 ) );
#236 = EDGE_CURVE( '', #258, #258, #259, .T. );
#237 = FILL_AREA_STYLE( '', ( #260 ) );
#238 = EDGE_CURVE( '', #261, #261, #262, .T. );
#239 = FILL_AREA_STYLE( '', ( #263 ) );
#240 = FILL_AREA_STYLE( '', ( #264 ) );
#241 = EDGE_CURVE( '', #265, #265, #266, .T. );
#242 = FILL_AREA_STYLE( '', ( #267 ) );
#243 = FILL_AREA_STYLE( '', ( #268 ) );
#244 = CARTESIAN_POINT( '', ( -1.76028515666286E-15, 8.00000000000000, 0.000000000000000 ) );
#245 = EDGE_CURVE( '', #269, #269, #270, .T. );
#246 = FILL_AREA_STYLE( '', ( #271 ) );
#247 = FILL_AREA_STYLE_COLOUR( '', #272 );
#248 = VERTEX_POINT( '', #273 );
#249 = CIRCLE( '', #274, 60.0000000000000 );
#250 = VERTEX_POINT( '', #275 );
#251 = CIRCLE( '', #276, 60.0000000000000 );
#252 = FILL_AREA_STYLE_COLOUR( '', #277 );
#253 = VERTEX_POINT( '', #278 );
#254 = CIRCLE( '', #279, 4.50000000000000 );
#255 = VERTEX_POINT( '', #280 );
#256 = CIRCLE( '', #281, 4.50000000000000 );
#257 = FILL_AREA_STYLE_COLOUR( '', #282 );
#258 = VERTEX_POINT( '', #283 );
#259 = CIRCLE( '', #284, 54.6089705941000 );
#260 = FILL_AREA_STYLE_COLOUR( '', #285 );
#261 = VERTEX_POINT( '', #286 );
#262 = CIRCLE( '', #287, 52.8000000000000 );
#263 = FILL_AREA_STYLE_COLOUR( '', #288 );
#264 = FILL_AREA_STYLE_COLOUR( '', #289 );
#265 = VERTEX_POINT( '', #290 );
#266 = CIRCLE( '', #291, 52.8000000000000 );
#267 = FILL_AREA_STYLE_COLOUR( '', #292 );
#268 = FILL_AREA_STYLE_COLOUR( '', #293 );
#269 = VERTEX_POINT( '', #294 );
#270 = CIRCLE( '', #295, 7.07163919900000 );
#271 = FILL_AREA_STYLE_COLOUR( '', #296 );
#272 = COLOUR_RGB( '', 0.689999997600000, 0.689999997600000, 0.689999997600000 );
#273 = CARTESIAN_POINT( '', ( 0.000000000000000, 0.000000000000000, -60.0000000000000 ) );
#274 = AXIS2_PLACEMENT_3D( '', #297, #298, #299 );
#275 = CARTESIAN_POINT( '', ( 0.000000000000000, 1.90838456546021, -60.0000000000000 ) );
#276 = AXIS2_PLACEMENT_3D( '', #300, #301, #302 );
#277 = COLOUR_RGB( '', 0.689999997600000, 0.689999997600000, 0.689999997600000 );
#278 = CARTESIAN_POINT( '', ( 0.000000000000000, 5.49000000000000, 4.50000000000000 ) );
#279 = AXIS2_PLACEMENT_3D( '', #303, #304, #305 );
#280 = CARTESIAN_POINT( '', ( 0.000000000000000, -2.00000000000000, 4.50000000000000 ) );
#281 = AXIS2_PLACEMENT_3D( '', #306, #307, #308 );
#282 = COLOUR_RGB( '', 0.689999997600000, 0.689999997600000, 0.689999997600000 );
#283 = CARTESIAN_POINT( '', ( 0.000000000000000, 9.47100794887523, -54.6089705940514 ) );
#284 = AXIS2_PLACEMENT_3D( '', #309, #310, #311 );
#285 = COLOUR_RGB( '', 0.689999997600000, 0.689999997600000, 0.689999997600000 );
#286 = CARTESIAN_POINT( '', ( 0.000000000000000, 0.000000000000000, -52.8000000000000 ) );
#287 = AXIS2_PLACEMENT_3D( '', #312, #313, #314 );
#288 = COLOUR_RGB( '', 0.689999997600000, 0.689999997600000, 0.689999997600000 );
#289 = COLOUR_RGB( '', 0.689999997600000, 0.689999997600000, 0.689999997600000 );
#290 = CARTESIAN_POINT( '', ( 0.000000000000000, -2.00000000000000, -52.8000000000000 ) );
#291 = AXIS2_PLACEMENT_3D( '', #315, #316, #317 );
#292 = COLOUR_RGB( '', 0.689999997600000, 0.689999997600000, 0.689999997600000 );
#293 = COLOUR_RGB( '', 0.689999997600000, 0.689999997600000, 0.689999997600000 );
#294 = CARTESIAN_POINT( '', ( 0.000000000000000, 17.9983832850367, -7.07163919901526 ) );
#295 = AXIS2_PLACEMENT_3D( '', #318, #319, #320 );
#296 = COLOUR_RGB( '', 0.689999997600000, 0.689999997600000, 0.689999997600000 );
#297 = CARTESIAN_POINT( '', ( 0.000000000000000, 0.000000000000000, 0.000000000000000 ) );
#298 = DIRECTION( '', ( 0.000000000000000, -1.00000000000000, -0.000000000000000 ) );
#299 = DIRECTION( '', ( 0.000000000000000, 0.000000000000000, -1.00000000000000 ) );
#300 = CARTESIAN_POINT( '', ( 0.000000000000000, 1.90838456546021, 0.000000000000000 ) );
#301 = DIRECTION( '', ( 0.000000000000000, -1.00000000000000, -0.000000000000000 ) );
#302 = DIRECTION( '', ( 0.000000000000000, 0.000000000000000, -1.00000000000000 ) );
#303 = CARTESIAN_POINT( '', ( 0.000000000000000, 5.49000000000000, 0.000000000000000 ) );
#304 = DIRECTION( '', ( -0.000000000000000, 1.00000000000000, 0.000000000000000 ) );
#305 = DIRECTION( '', ( 0.000000000000000, 0.000000000000000, 1.00000000000000 ) );
#306 = CARTESIAN_POINT( '', ( 0.000000000000000, -2.00000000000000, 0.000000000000000 ) );
#307 = DIRECTION( '', ( 0.000000000000000, 1.00000000000000, 0.000000000000000 ) );
#308 = DIRECTION( '', ( 0.000000000000000, -0.000000000000000, 1.00000000000000 ) );
#309 = CARTESIAN_POINT( '', ( 0.000000000000000, 9.47100794887523, 0.000000000000000 ) );
#310 = DIRECTION( '', ( 0.000000000000000, -1.00000000000000, -0.000000000000000 ) );
#311 = DIRECTION( '', ( 0.000000000000000, 0.000000000000000, -1.00000000000000 ) );
#312 = CARTESIAN_POINT( '', ( 0.000000000000000, 0.000000000000000, 0.000000000000000 ) );
#313 = DIRECTION( '', ( 0.000000000000000, -1.00000000000000, -0.000000000000000 ) );
#314 = DIRECTION( '', ( 0.000000000000000, 0.000000000000000, -1.00000000000000 ) );
#315 = CARTESIAN_POINT( '', ( 0.000000000000000, -2.00000000000000, 0.000000000000000 ) );
#316 = DIRECTION( '', ( 0.000000000000000, -1.00000000000000, -0.000000000000000 ) );
#317 = DIRECTION( '', ( 0.000000000000000, 0.000000000000000, -1.00000000000000 ) );
#318 = CARTESIAN_POINT( '', ( 0.000000000000000, 17.9983832850367, 0.000000000000000 ) );
#319 = DIRECTION( '', ( 0.000000000000000, -1.00000000000000, -0.000000000000000 ) );
#320 = DIRECTION( '', ( 0.000000000000000, 0.000000000000000, -1.00000000000000 ) );
ENDSEC;
END-ISO-10303-21;
