ISO-10303-21;
HEADER;
FILE_DESCRIPTION( ( 'STEP AP214' ), '1' );
FILE_NAME( '//goodhand-server/Shared Folders/GoodHand Data/Kipp CAD/K0416/K0416.20802.stp', '2020-12-07T14:34:46', ( '' ), ( '' ), ' ', 'PARTsolutions', ' ' );
FILE_SCHEMA( ( 'AUTOMOTIVE_DESIGN { 1 0 10303 214 1 1 1 1 }' ) );
ENDSEC;
DATA;
#1 = MECHANICAL_DESIGN_GEOMETRIC_PRESENTATION_REPRESENTATION( ' ', ( #10, #11, #12, #13, #14, #15, #16, #17, #18 ), #6 );
#2 = PRODUCT_DEFINITION_CONTEXT( '', #19, 'design' );
#3 = APPLICATION_PROTOCOL_DEFINITION( 'international standard', 'automotive_design', 2001, #19 );
#4 = PRODUCT_CATEGORY_RELATIONSHIP( 'NONE', 'NONE', #20, #21 );
#5 = SHAPE_DEFINITION_REPRESENTATION( #22, #23 );
#6 =  ( GEOMETRIC_REPRESENTATION_CONTEXT( 3 )GLOBAL_UNCERTAINTY_ASSIGNED_CONTEXT( ( #26 ) )GLOBAL_UNIT_ASSIGNED_CONTEXT( ( #28, #29, #30 ) )REPRESENTATION_CONTEXT( 'NONE', 'WORKSPACE' ) );
#10 = STYLED_ITEM( '', ( #32 ), #33 );
#11 = STYLED_ITEM( '', ( #34 ), #35 );
#12 = STYLED_ITEM( '', ( #36 ), #37 );
#13 = STYLED_ITEM( '', ( #38 ), #39 );
#14 = STYLED_ITEM( '', ( #40 ), #41 );
#15 = STYLED_ITEM( '', ( #42 ), #43 );
#16 = STYLED_ITEM( '', ( #44 ), #45 );
#17 = STYLED_ITEM( '', ( #46 ), #47 );
#18 = STYLED_ITEM( '', ( #48 ), #49 );
#19 = APPLICATION_CONTEXT( 'core data for automotive mechanical design processes' );
#20 = PRODUCT_CATEGORY( 'part', 'NONE' );
#21 = PRODUCT_RELATED_PRODUCT_CATEGORY( 'detail', ' ', ( #50 ) );
#22 = PRODUCT_DEFINITION_SHAPE( 'NONE', 'NONE', #51 );
#23 = ADVANCED_BREP_SHAPE_REPRESENTATION( '_K0416.20802', ( #52, #53 ), #6 );
#26 = UNCERTAINTY_MEASURE_WITH_UNIT( LENGTH_MEASURE( 0.00100000000000000 ), #28, '', '' );
#28 =  ( CONVERSION_BASED_UNIT( 'MILLIMETRE', #56 )LENGTH_UNIT(  )NAMED_UNIT( #59 ) );
#29 =  ( NAMED_UNIT( #61 )PLANE_ANGLE_UNIT(  )SI_UNIT( $, .RADIAN. ) );
#30 =  ( NAMED_UNIT( #61 )SI_UNIT( $, .STERADIAN. )SOLID_ANGLE_UNIT(  ) );
#32 = PRESENTATION_STYLE_ASSIGNMENT( ( #67 ) );
#33 = ADVANCED_FACE( '', ( #68, #69 ), #70, .F. );
#34 = PRESENTATION_STYLE_ASSIGNMENT( ( #71 ) );
#35 = ADVANCED_FACE( '', ( #72, #73 ), #74, .T. );
#36 = PRESENTATION_STYLE_ASSIGNMENT( ( #75 ) );
#37 = ADVANCED_FACE( '', ( #76 ), #77, .T. );
#38 = PRESENTATION_STYLE_ASSIGNMENT( ( #78 ) );
#39 = ADVANCED_FACE( '', ( #79, #80 ), #81, .T. );
#40 = PRESENTATION_STYLE_ASSIGNMENT( ( #82 ) );
#41 = ADVANCED_FACE( '', ( #83, #84 ), #85, .T. );
#42 = PRESENTATION_STYLE_ASSIGNMENT( ( #86 ) );
#43 = ADVANCED_FACE( '', ( #87, #88 ), #89, .F. );
#44 = PRESENTATION_STYLE_ASSIGNMENT( ( #90 ) );
#45 = ADVANCED_FACE( '', ( #91, #92 ), #93, .F. );
#46 = PRESENTATION_STYLE_ASSIGNMENT( ( #94 ) );
#47 = ADVANCED_FACE( '', ( #95, #96 ), #97, .T. );
#48 = PRESENTATION_STYLE_ASSIGNMENT( ( #98 ) );
#49 = ADVANCED_FACE( '', ( #99, #100 ), #101, .F. );
#50 = PRODUCT( '_K0416.20802', '_K0416.20802', 'PART-_K0416.20802-DESC', ( #102 ) );
#51 = PRODUCT_DEFINITION( 'NONE', 'NONE', #103, #2 );
#52 = MANIFOLD_SOLID_BREP( '_K0416.20802', #104 );
#53 = AXIS2_PLACEMENT_3D( '', #105, #106, #107 );
#56 = LENGTH_MEASURE_WITH_UNIT( LENGTH_MEASURE( 1.00000000000000 ), #108 );
#59 = DIMENSIONAL_EXPONENTS( 1.00000000000000, 0.000000000000000, 0.000000000000000, 0.000000000000000, 0.000000000000000, 0.000000000000000, 0.000000000000000 );
#61 = DIMENSIONAL_EXPONENTS( 0.000000000000000, 0.000000000000000, 0.000000000000000, 0.000000000000000, 0.000000000000000, 0.000000000000000, 0.000000000000000 );
#67 = SURFACE_STYLE_USAGE( .BOTH., #109 );
#68 = FACE_OUTER_BOUND( '', #110, .T. );
#69 = FACE_OUTER_BOUND( '', #111, .T. );
#70 = CYLINDRICAL_SURFACE( '', #112, 4.50000000000000 );
#71 = SURFACE_STYLE_USAGE( .BOTH., #113 );
#72 = FACE_OUTER_BOUND( '', #114, .T. );
#73 = FACE_OUTER_BOUND( '', #115, .T. );
#74 = CYLINDRICAL_SURFACE( '', #116, 35.2000000000000 );
#75 = SURFACE_STYLE_USAGE( .BOTH., #117 );
#76 = FACE_OUTER_BOUND( '', #118, .T. );
#77 = PLANE( '', #119 );
#78 = SURFACE_STYLE_USAGE( .BOTH., #120 );
#79 = FACE_OUTER_BOUND( '', #121, .T. );
#80 = FACE_OUTER_BOUND( '', #122, .T. );
#81 = TOROIDAL_SURFACE( '', #123, 34.6666666667000, 5.33333333330000 );
#82 = SURFACE_STYLE_USAGE( .BOTH., #124 );
#83 = FACE_OUTER_BOUND( '', #125, .T. );
#84 = FACE_OUTER_BOUND( '', #126, .T. );
#85 = CYLINDRICAL_SURFACE( '', #127, 40.0000000000000 );
#86 = SURFACE_STYLE_USAGE( .BOTH., #128 );
#87 = FACE_BOUND( '', #129, .T. );
#88 = FACE_OUTER_BOUND( '', #130, .T. );
#89 = PLANE( '', #131 );
#90 = SURFACE_STYLE_USAGE( .BOTH., #132 );
#91 = FACE_BOUND( '', #133, .T. );
#92 = FACE_OUTER_BOUND( '', #134, .T. );
#93 = SPHERICAL_SURFACE( '', #135, 7.50000000000000 );
#94 = SURFACE_STYLE_USAGE( .BOTH., #136 );
#95 = FACE_OUTER_BOUND( '', #137, .T. );
#96 = FACE_OUTER_BOUND( '', #138, .T. );
#97 = ( BOUNDED_SURFACE(  )B_SPLINE_SURFACE( 3, 3, ( ( #141, #142, #143, #144, #145, #146, #147 ), ( #148, #149, #150, #151, #152, #153, #154 ), ( #155, #156, #157, #158, #159, #160, #161 ), ( #162, #163, #164, #165, #166, #167, #168 ) ), .UNSPECIFIED., .F., .T., .F. )B_SPLINE_SURFACE_WITH_KNOTS( ( 4, 4 ), ( 4, 3, 4 ), ( 0.000000000000000, 6.28318530717959 ), ( -1.51838887940662, -1.28522522439984, -1.05206156939305 ), .UNSPECIFIED. )GEOMETRIC_REPRESENTATION_ITEM(  )RATIONAL_B_SPLINE_SURFACE( ( ( 1.00000000000000, 0.333333333333333, 0.333333333333333, 1.00000000000000, 0.333333333333333, 0.333333333333333, 1.00000000000000 ), ( 0.981960187603357, 0.327320062534452, 0.327320062534452, 0.981960187603357, 0.327320062534452, 0.327320062534452, 0.981960187603357 ), ( 0.981960187603357, 0.327320062534452, 0.327320062534452, 0.981960187603357, 0.327320062534452, 0.327320062534452, 0.981960187603357 ), ( 1.00000000000000, 0.333333333333333, 0.333333333333333, 1.00000000000000, 0.333333333333333, 0.333333333333333, 1.00000000000000 ) ) )REPRESENTATION_ITEM( '' )SURFACE(  ) );
#98 = SURFACE_STYLE_USAGE( .BOTH., #174 );
#99 = FACE_BOUND( '', #175, .T. );
#100 = FACE_OUTER_BOUND( '', #176, .T. );
#101 = PLANE( '', #177 );
#102 = PRODUCT_CONTEXT( '', #19, 'mechanical' );
#103 = PRODUCT_DEFINITION_FORMATION_WITH_SPECIFIED_SOURCE( ' ', 'NONE', #50, .NOT_KNOWN. );
#104 = CLOSED_SHELL( '', ( #37, #33, #45, #47, #39, #41, #43, #35, #49 ) );
#105 = CARTESIAN_POINT( '', ( 0.000000000000000, 0.000000000000000, 0.000000000000000 ) );
#106 = DIRECTION( '', ( 0.000000000000000, 0.000000000000000, 1.00000000000000 ) );
#107 = DIRECTION( '', ( 1.00000000000000, 0.000000000000000, 0.000000000000000 ) );
#108 =  ( LENGTH_UNIT(  )NAMED_UNIT( #59 )SI_UNIT( .MILLI., .METRE. ) );
#109 = SURFACE_SIDE_STYLE( '', ( #179 ) );
#110 = EDGE_LOOP( '', ( #180 ) );
#111 = EDGE_LOOP( '', ( #181 ) );
#112 = AXIS2_PLACEMENT_3D( '', #182, #183, #184 );
#113 = SURFACE_SIDE_STYLE( '', ( #185 ) );
#114 = EDGE_LOOP( '', ( #186 ) );
#115 = EDGE_LOOP( '', ( #187 ) );
#116 = AXIS2_PLACEMENT_3D( '', #188, #189, #190 );
#117 = SURFACE_SIDE_STYLE( '', ( #191 ) );
#118 = EDGE_LOOP( '', ( #192 ) );
#119 = AXIS2_PLACEMENT_3D( '', #193, #194, #195 );
#120 = SURFACE_SIDE_STYLE( '', ( #196 ) );
#121 = EDGE_LOOP( '', ( #197 ) );
#122 = EDGE_LOOP( '', ( #198 ) );
#123 = AXIS2_PLACEMENT_3D( '', #199, #200, #201 );
#124 = SURFACE_SIDE_STYLE( '', ( #202 ) );
#125 = EDGE_LOOP( '', ( #203 ) );
#126 = EDGE_LOOP( '', ( #204 ) );
#127 = AXIS2_PLACEMENT_3D( '', #205, #206, #207 );
#128 = SURFACE_SIDE_STYLE( '', ( #208 ) );
#129 = EDGE_LOOP( '', ( #209 ) );
#130 = EDGE_LOOP( '', ( #210 ) );
#131 = AXIS2_PLACEMENT_3D( '', #211, #212, #213 );
#132 = SURFACE_SIDE_STYLE( '', ( #214 ) );
#133 = VERTEX_LOOP( '', #215 );
#134 = EDGE_LOOP( '', ( #216 ) );
#135 = AXIS2_PLACEMENT_3D( '', #217, #218, #219 );
#136 = SURFACE_SIDE_STYLE( '', ( #220 ) );
#137 = EDGE_LOOP( '', ( #221 ) );
#138 = EDGE_LOOP( '', ( #222 ) );
#141 = CARTESIAN_POINT( '', ( 0.000000000000000, 9.11836139781586, -37.3108348596885 ) );
#142 = CARTESIAN_POINT( '', ( 74.6216697193771, 9.11836139781586, -37.3108348596885 ) );
#143 = CARTESIAN_POINT( '', ( 74.6216697193771, 9.11836139781586, 37.3108348596885 ) );
#144 = CARTESIAN_POINT( '', ( 0.000000000000000, 9.11836139781586, 37.3108348596885 ) );
#145 = CARTESIAN_POINT( '', ( -74.6216697193771, 9.11836139781586, 37.3108348596885 ) );
#146 = CARTESIAN_POINT( '', ( -74.6216697193771, 9.11836139781586, -37.3108348596885 ) );
#147 = CARTESIAN_POINT( '', ( 0.000000000000000, 9.11836139781586, -37.3108348596885 ) );
#148 = CARTESIAN_POINT( '', ( 0.000000000000000, 14.4221885605158, -28.0202675165388 ) );
#149 = CARTESIAN_POINT( '', ( 56.0405350330776, 14.4221885605158, -28.0202675165388 ) );
#150 = CARTESIAN_POINT( '', ( 56.0405350330776, 14.4221885605158, 28.0202675165388 ) );
#151 = CARTESIAN_POINT( '', ( 0.000000000000000, 14.4221885605158, 28.0202675165388 ) );
#152 = CARTESIAN_POINT( '', ( -56.0405350330776, 14.4221885605158, 28.0202675165388 ) );
#153 = CARTESIAN_POINT( '', ( -56.0405350330776, 14.4221885605158, -28.0202675165388 ) );
#154 = CARTESIAN_POINT( '', ( 0.000000000000000, 14.4221885605158, -28.0202675165388 ) );
#155 = CARTESIAN_POINT( '', ( 0.000000000000000, 17.4358476161222, -17.7556153925769 ) );
#156 = CARTESIAN_POINT( '', ( 35.5112307851538, 17.4358476161222, -17.7556153925769 ) );
#157 = CARTESIAN_POINT( '', ( 35.5112307851538, 17.4358476161222, 17.7556153925769 ) );
#158 = CARTESIAN_POINT( '', ( 0.000000000000000, 17.4358476161222, 17.7556153925769 ) );
#159 = CARTESIAN_POINT( '', ( -35.5112307851538, 17.4358476161222, 17.7556153925769 ) );
#160 = CARTESIAN_POINT( '', ( -35.5112307851538, 17.4358476161222, -17.7556153925769 ) );
#161 = CARTESIAN_POINT( '', ( 0.000000000000000, 17.4358476161222, -17.7556153925769 ) );
#162 = CARTESIAN_POINT( '', ( 0.000000000000000, 17.9962410326634, -7.07239568370205 ) );
#163 = CARTESIAN_POINT( '', ( 14.1447913674041, 17.9962410326634, -7.07239568370205 ) );
#164 = CARTESIAN_POINT( '', ( 14.1447913674041, 17.9962410326634, 7.07239568370205 ) );
#165 = CARTESIAN_POINT( '', ( 0.000000000000000, 17.9962410326634, 7.07239568370205 ) );
#166 = CARTESIAN_POINT( '', ( -14.1447913674041, 17.9962410326634, 7.07239568370205 ) );
#167 = CARTESIAN_POINT( '', ( -14.1447913674041, 17.9962410326634, -7.07239568370205 ) );
#168 = CARTESIAN_POINT( '', ( 0.000000000000000, 17.9962410326634, -7.07239568370205 ) );
#174 = SURFACE_SIDE_STYLE( '', ( #223 ) );
#175 = EDGE_LOOP( '', ( #224 ) );
#176 = EDGE_LOOP( '', ( #225 ) );
#177 = AXIS2_PLACEMENT_3D( '', #226, #227, #228 );
#179 = SURFACE_STYLE_FILL_AREA( #229 );
#180 = ORIENTED_EDGE( '', *, *, #230, .T. );
#181 = ORIENTED_EDGE( '', *, *, #231, .T. );
#182 = CARTESIAN_POINT( '', ( 0.000000000000000, 5.49000000000000, 0.000000000000000 ) );
#183 = DIRECTION( '', ( 0.000000000000000, -1.00000000000000, -0.000000000000000 ) );
#184 = DIRECTION( '', ( 0.000000000000000, 0.000000000000000, 1.00000000000000 ) );
#185 = SURFACE_STYLE_FILL_AREA( #232 );
#186 = ORIENTED_EDGE( '', *, *, #233, .F. );
#187 = ORIENTED_EDGE( '', *, *, #234, .T. );
#188 = CARTESIAN_POINT( '', ( 0.000000000000000, -2.00000000000000, 0.000000000000000 ) );
#189 = DIRECTION( '', ( -0.000000000000000, 1.00000000000000, 0.000000000000000 ) );
#190 = DIRECTION( '', ( 0.000000000000000, 0.000000000000000, -1.00000000000000 ) );
#191 = SURFACE_STYLE_FILL_AREA( #235 );
#192 = ORIENTED_EDGE( '', *, *, #230, .F. );
#193 = CARTESIAN_POINT( '', ( 0.000000000000000, 5.49000000000000, 0.000000000000000 ) );
#194 = DIRECTION( '', ( 0.000000000000000, -1.00000000000000, -0.000000000000000 ) );
#195 = DIRECTION( '', ( 0.000000000000000, 0.000000000000000, -1.00000000000000 ) );
#196 = SURFACE_STYLE_FILL_AREA( #236 );
#197 = ORIENTED_EDGE( '', *, *, #237, .T. );
#198 = ORIENTED_EDGE( '', *, *, #238, .F. );
#199 = CARTESIAN_POINT( '', ( 0.000000000000000, 4.48664260114267, 0.000000000000000 ) );
#200 = DIRECTION( '', ( 0.000000000000000, -1.00000000000000, -0.000000000000000 ) );
#201 = DIRECTION( '', ( 0.000000000000000, 0.000000000000000, -1.00000000000000 ) );
#202 = SURFACE_STYLE_FILL_AREA( #239 );
#203 = ORIENTED_EDGE( '', *, *, #240, .F. );
#204 = ORIENTED_EDGE( '', *, *, #238, .T. );
#205 = CARTESIAN_POINT( '', ( 0.000000000000000, -2.00000000000000, 0.000000000000000 ) );
#206 = DIRECTION( '', ( -0.000000000000000, 1.00000000000000, 0.000000000000000 ) );
#207 = DIRECTION( '', ( 0.000000000000000, 0.000000000000000, -1.00000000000000 ) );
#208 = SURFACE_STYLE_FILL_AREA( #241 );
#209 = ORIENTED_EDGE( '', *, *, #234, .F. );
#210 = ORIENTED_EDGE( '', *, *, #240, .T. );
#211 = CARTESIAN_POINT( '', ( 40.0000000000000, 0.000000000000000, 0.000000000000000 ) );
#212 = DIRECTION( '', ( 0.000000000000000, 1.00000000000000, 0.000000000000000 ) );
#213 = DIRECTION( '', ( 0.000000000000000, -0.000000000000000, 1.00000000000000 ) );
#214 = SURFACE_STYLE_FILL_AREA( #242 );
#215 = VERTEX_POINT( '', #243 );
#216 = ORIENTED_EDGE( '', *, *, #244, .F. );
#217 = CARTESIAN_POINT( '', ( -8.67361737988404E-16, 15.5000000000000, 0.000000000000000 ) );
#218 = DIRECTION( '', ( 0.000000000000000, -1.00000000000000, 0.000000000000000 ) );
#219 = DIRECTION( '', ( -1.00000000000000, 0.000000000000000, 0.000000000000000 ) );
#220 = SURFACE_STYLE_FILL_AREA( #245 );
#221 = ORIENTED_EDGE( '', *, *, #244, .T. );
#222 = ORIENTED_EDGE( '', *, *, #237, .F. );
#223 = SURFACE_STYLE_FILL_AREA( #246 );
#224 = ORIENTED_EDGE( '', *, *, #231, .F. );
#225 = ORIENTED_EDGE( '', *, *, #233, .T. );
#226 = CARTESIAN_POINT( '', ( 35.2000000000000, -2.00000000000000, 0.000000000000000 ) );
#227 = DIRECTION( '', ( 0.000000000000000, 1.00000000000000, 0.000000000000000 ) );
#228 = DIRECTION( '', ( 0.000000000000000, -0.000000000000000, 1.00000000000000 ) );
#229 = FILL_AREA_STYLE( '', ( #247 ) );
#230 = EDGE_CURVE( '', #248, #248, #249, .T. );
#231 = EDGE_CURVE( '', #250, #250, #251, .F. );
#232 = FILL_AREA_STYLE( '', ( #252 ) );
#233 = EDGE_CURVE( '', #253, #253, #254, .T. );
#234 = EDGE_CURVE( '', #255, #255, #256, .T. );
#235 = FILL_AREA_STYLE( '', ( #257 ) );
#236 = FILL_AREA_STYLE( '', ( #258 ) );
#237 = EDGE_CURVE( '', #259, #259, #260, .T. );
#238 = EDGE_CURVE( '', #261, #261, #262, .T. );
#239 = FILL_AREA_STYLE( '', ( #263 ) );
#240 = EDGE_CURVE( '', #264, #264, #265, .T. );
#241 = FILL_AREA_STYLE( '', ( #266 ) );
#242 = FILL_AREA_STYLE( '', ( #267 ) );
#243 = CARTESIAN_POINT( '', ( -1.32660428766866E-15, 8.00000000000000, 0.000000000000000 ) );
#244 = EDGE_CURVE( '', #268, #268, #269, .T. );
#245 = FILL_AREA_STYLE( '', ( #270 ) );
#246 = FILL_AREA_STYLE( '', ( #271 ) );
#247 = FILL_AREA_STYLE_COLOUR( '', #272 );
#248 = VERTEX_POINT( '', #273 );
#249 = CIRCLE( '', #274, 4.50000000000000 );
#250 = VERTEX_POINT( '', #275 );
#251 = CIRCLE( '', #276, 4.50000000000000 );
#252 = FILL_AREA_STYLE_COLOUR( '', #277 );
#253 = VERTEX_POINT( '', #278 );
#254 = CIRCLE( '', #279, 35.2000000000000 );
#255 = VERTEX_POINT( '', #280 );
#256 = CIRCLE( '', #281, 35.2000000000000 );
#257 = FILL_AREA_STYLE_COLOUR( '', #282 );
#258 = FILL_AREA_STYLE_COLOUR( '', #283 );
#259 = VERTEX_POINT( '', #284 );
#260 = CIRCLE( '', #285, 37.3108348597000 );
#261 = VERTEX_POINT( '', #286 );
#262 = CIRCLE( '', #287, 40.0000000000000 );
#263 = FILL_AREA_STYLE_COLOUR( '', #288 );
#264 = VERTEX_POINT( '', #289 );
#265 = CIRCLE( '', #290, 40.0000000000000 );
#266 = FILL_AREA_STYLE_COLOUR( '', #291 );
#267 = FILL_AREA_STYLE_COLOUR( '', #292 );
#268 = VERTEX_POINT( '', #293 );
#269 = CIRCLE( '', #294, 7.07239568370000 );
#270 = FILL_AREA_STYLE_COLOUR( '', #295 );
#271 = FILL_AREA_STYLE_COLOUR( '', #296 );
#272 = COLOUR_RGB( '', 0.689999997600000, 0.689999997600000, 0.689999997600000 );
#273 = CARTESIAN_POINT( '', ( 0.000000000000000, 5.49000000000000, 4.50000000000000 ) );
#274 = AXIS2_PLACEMENT_3D( '', #297, #298, #299 );
#275 = CARTESIAN_POINT( '', ( 0.000000000000000, -2.00000000000000, 4.50000000000000 ) );
#276 = AXIS2_PLACEMENT_3D( '', #300, #301, #302 );
#277 = COLOUR_RGB( '', 0.689999997600000, 0.689999997600000, 0.689999997600000 );
#278 = CARTESIAN_POINT( '', ( 0.000000000000000, -2.00000000000000, -35.2000000000000 ) );
#279 = AXIS2_PLACEMENT_3D( '', #303, #304, #305 );
#280 = CARTESIAN_POINT( '', ( 0.000000000000000, 0.000000000000000, -35.2000000000000 ) );
#281 = AXIS2_PLACEMENT_3D( '', #306, #307, #308 );
#282 = COLOUR_RGB( '', 0.689999997600000, 0.689999997600000, 0.689999997600000 );
#283 = COLOUR_RGB( '', 0.689999997600000, 0.689999997600000, 0.689999997600000 );
#284 = CARTESIAN_POINT( '', ( 0.000000000000000, 9.11836139781586, -37.3108348596885 ) );
#285 = AXIS2_PLACEMENT_3D( '', #309, #310, #311 );
#286 = CARTESIAN_POINT( '', ( 0.000000000000000, 4.48664260114248, -40.0000000000000 ) );
#287 = AXIS2_PLACEMENT_3D( '', #312, #313, #314 );
#288 = COLOUR_RGB( '', 0.689999997600000, 0.689999997600000, 0.689999997600000 );
#289 = CARTESIAN_POINT( '', ( 0.000000000000000, 0.000000000000000, -40.0000000000000 ) );
#290 = AXIS2_PLACEMENT_3D( '', #315, #316, #317 );
#291 = COLOUR_RGB( '', 0.689999997600000, 0.689999997600000, 0.689999997600000 );
#292 = COLOUR_RGB( '', 0.689999997600000, 0.689999997600000, 0.689999997600000 );
#293 = CARTESIAN_POINT( '', ( 0.000000000000000, 17.9962410326635, -7.07239568370204 ) );
#294 = AXIS2_PLACEMENT_3D( '', #318, #319, #320 );
#295 = COLOUR_RGB( '', 0.689999997600000, 0.689999997600000, 0.689999997600000 );
#296 = COLOUR_RGB( '', 0.689999997600000, 0.689999997600000, 0.689999997600000 );
#297 = CARTESIAN_POINT( '', ( 0.000000000000000, 5.49000000000000, 0.000000000000000 ) );
#298 = DIRECTION( '', ( -0.000000000000000, 1.00000000000000, 0.000000000000000 ) );
#299 = DIRECTION( '', ( 0.000000000000000, 0.000000000000000, 1.00000000000000 ) );
#300 = CARTESIAN_POINT( '', ( 0.000000000000000, -2.00000000000000, 0.000000000000000 ) );
#301 = DIRECTION( '', ( 0.000000000000000, 1.00000000000000, 0.000000000000000 ) );
#302 = DIRECTION( '', ( 0.000000000000000, -0.000000000000000, 1.00000000000000 ) );
#303 = CARTESIAN_POINT( '', ( 0.000000000000000, -2.00000000000000, 0.000000000000000 ) );
#304 = DIRECTION( '', ( 0.000000000000000, -1.00000000000000, -0.000000000000000 ) );
#305 = DIRECTION( '', ( 0.000000000000000, 0.000000000000000, -1.00000000000000 ) );
#306 = CARTESIAN_POINT( '', ( 0.000000000000000, 0.000000000000000, 0.000000000000000 ) );
#307 = DIRECTION( '', ( 0.000000000000000, -1.00000000000000, -0.000000000000000 ) );
#308 = DIRECTION( '', ( 0.000000000000000, 0.000000000000000, -1.00000000000000 ) );
#309 = CARTESIAN_POINT( '', ( 0.000000000000000, 9.11836139781586, 0.000000000000000 ) );
#310 = DIRECTION( '', ( 0.000000000000000, -1.00000000000000, -0.000000000000000 ) );
#311 = DIRECTION( '', ( 0.000000000000000, 0.000000000000000, -1.00000000000000 ) );
#312 = CARTESIAN_POINT( '', ( 0.000000000000000, 4.48664260114248, 0.000000000000000 ) );
#313 = DIRECTION( '', ( 0.000000000000000, -1.00000000000000, -0.000000000000000 ) );
#314 = DIRECTION( '', ( 0.000000000000000, 0.000000000000000, -1.00000000000000 ) );
#315 = CARTESIAN_POINT( '', ( 0.000000000000000, 0.000000000000000, 0.000000000000000 ) );
#316 = DIRECTION( '', ( 0.000000000000000, -1.00000000000000, -0.000000000000000 ) );
#317 = DIRECTION( '', ( 0.000000000000000, 0.000000000000000, -1.00000000000000 ) );
#318 = CARTESIAN_POINT( '', ( 0.000000000000000, 17.9962410326635, 0.000000000000000 ) );
#319 = DIRECTION( '', ( 0.000000000000000, -1.00000000000000, -0.000000000000000 ) );
#320 = DIRECTION( '', ( 0.000000000000000, 0.000000000000000, -1.00000000000000 ) );
ENDSEC;
END-ISO-10303-21;
