ISO-10303-21;
HEADER;
FILE_DESCRIPTION( ( 'STEP AP214' ), '1' );
FILE_NAME( '//goodhand-server/Shared Folders/GoodHand Data/Kipp CAD/K0415/K0415.1040.stp', '2020-12-07T12:33:34', ( '' ), ( '' ), ' ', 'PARTsolutions', ' ' );
FILE_SCHEMA( ( 'AUTOMOTIVE_DESIGN { 1 0 10303 214 1 1 1 1 }' ) );
ENDSEC;
DATA;
#1 = MECHANICAL_DESIGN_GEOMETRIC_PRESENTATION_REPRESENTATION( ' ', ( #10, #11, #12, #13, #14, #15, #16, #17, #18, #19 ), #6 );
#2 = PRODUCT_DEFINITION_CONTEXT( '', #20, 'design' );
#3 = APPLICATION_PROTOCOL_DEFINITION( 'international standard', 'automotive_design', 2001, #20 );
#4 = PRODUCT_CATEGORY_RELATIONSHIP( 'NONE', 'NONE', #21, #22 );
#5 = SHAPE_DEFINITION_REPRESENTATION( #23, #24 );
#6 =  ( GEOMETRIC_REPRESENTATION_CONTEXT( 3 )GLOBAL_UNCERTAINTY_ASSIGNED_CONTEXT( ( #27 ) )GLOBAL_UNIT_ASSIGNED_CONTEXT( ( #29, #30, #31 ) )REPRESENTATION_CONTEXT( 'NONE', 'WORKSPACE' ) );
#10 = STYLED_ITEM( '', ( #33 ), #34 );
#11 = STYLED_ITEM( '', ( #35 ), #36 );
#12 = STYLED_ITEM( '', ( #37 ), #38 );
#13 = STYLED_ITEM( '', ( #39 ), #40 );
#14 = STYLED_ITEM( '', ( #41 ), #42 );
#15 = STYLED_ITEM( '', ( #43 ), #44 );
#16 = STYLED_ITEM( '', ( #45 ), #46 );
#17 = STYLED_ITEM( '', ( #47 ), #48 );
#18 = STYLED_ITEM( '', ( #49 ), #50 );
#19 = STYLED_ITEM( '', ( #51 ), #52 );
#20 = APPLICATION_CONTEXT( 'core data for automotive mechanical design processes' );
#21 = PRODUCT_CATEGORY( 'part', 'NONE' );
#22 = PRODUCT_RELATED_PRODUCT_CATEGORY( 'detail', ' ', ( #53 ) );
#23 = PRODUCT_DEFINITION_SHAPE( 'NONE', 'NONE', #54 );
#24 = ADVANCED_BREP_SHAPE_REPRESENTATION( '_K0415.1040', ( #55, #56 ), #6 );
#27 = UNCERTAINTY_MEASURE_WITH_UNIT( LENGTH_MEASURE( 0.00100000000000000 ), #29, '', '' );
#29 =  ( CONVERSION_BASED_UNIT( 'MILLIMETRE', #59 )LENGTH_UNIT(  )NAMED_UNIT( #62 ) );
#30 =  ( NAMED_UNIT( #64 )PLANE_ANGLE_UNIT(  )SI_UNIT( $, .RADIAN. ) );
#31 =  ( NAMED_UNIT( #64 )SI_UNIT( $, .STERADIAN. )SOLID_ANGLE_UNIT(  ) );
#33 = PRESENTATION_STYLE_ASSIGNMENT( ( #70 ) );
#34 = ADVANCED_FACE( '', ( #71, #72 ), #73, .F. );
#35 = PRESENTATION_STYLE_ASSIGNMENT( ( #74 ) );
#36 = ADVANCED_FACE( '', ( #75, #76 ), #77, .F. );
#37 = PRESENTATION_STYLE_ASSIGNMENT( ( #78 ) );
#38 = ADVANCED_FACE( '', ( #79 ), #80, .F. );
#39 = PRESENTATION_STYLE_ASSIGNMENT( ( #81 ) );
#40 = ADVANCED_FACE( '', ( #82, #83 ), #84, .F. );
#41 = PRESENTATION_STYLE_ASSIGNMENT( ( #85 ) );
#42 = ADVANCED_FACE( '', ( #86, #87 ), #88, .T. );
#43 = PRESENTATION_STYLE_ASSIGNMENT( ( #89 ) );
#44 = ADVANCED_FACE( '', ( #90, #91 ), #92, .F. );
#45 = PRESENTATION_STYLE_ASSIGNMENT( ( #93 ) );
#46 = ADVANCED_FACE( '', ( #94, #95 ), #96, .T. );
#47 = PRESENTATION_STYLE_ASSIGNMENT( ( #97 ) );
#48 = ADVANCED_FACE( '', ( #98, #99 ), #100, .T. );
#49 = PRESENTATION_STYLE_ASSIGNMENT( ( #101 ) );
#50 = ADVANCED_FACE( '', ( #102, #103 ), #104, .F. );
#51 = PRESENTATION_STYLE_ASSIGNMENT( ( #105 ) );
#52 = ADVANCED_FACE( '', ( #106, #107 ), #108, .T. );
#53 = PRODUCT( '_K0415.1040', '_K0415.1040', 'PART-_K0415.1040-DESC', ( #109 ) );
#54 = PRODUCT_DEFINITION( 'NONE', 'NONE', #110, #2 );
#55 = MANIFOLD_SOLID_BREP( '_K0415.1040', #111 );
#56 = AXIS2_PLACEMENT_3D( '', #112, #113, #114 );
#59 = LENGTH_MEASURE_WITH_UNIT( LENGTH_MEASURE( 1.00000000000000 ), #115 );
#62 = DIMENSIONAL_EXPONENTS( 1.00000000000000, 0.000000000000000, 0.000000000000000, 0.000000000000000, 0.000000000000000, 0.000000000000000, 0.000000000000000 );
#64 = DIMENSIONAL_EXPONENTS( 0.000000000000000, 0.000000000000000, 0.000000000000000, 0.000000000000000, 0.000000000000000, 0.000000000000000, 0.000000000000000 );
#70 = SURFACE_STYLE_USAGE( .BOTH., #116 );
#71 = FACE_BOUND( '', #117, .T. );
#72 = FACE_OUTER_BOUND( '', #118, .T. );
#73 = SPHERICAL_SURFACE( '', #119, 7.50000000000000 );
#74 = SURFACE_STYLE_USAGE( .BOTH., #120 );
#75 = FACE_OUTER_BOUND( '', #121, .T. );
#76 = FACE_OUTER_BOUND( '', #122, .T. );
#77 = CYLINDRICAL_SURFACE( '', #123, 17.6000000000000 );
#78 = SURFACE_STYLE_USAGE( .BOTH., #124 );
#79 = FACE_OUTER_BOUND( '', #125, .T. );
#80 = PLANE( '', #126 );
#81 = SURFACE_STYLE_USAGE( .BOTH., #127 );
#82 = FACE_BOUND( '', #128, .T. );
#83 = FACE_OUTER_BOUND( '', #129, .T. );
#84 = PLANE( '', #130 );
#85 = SURFACE_STYLE_USAGE( .BOTH., #131 );
#86 = FACE_OUTER_BOUND( '', #132, .T. );
#87 = FACE_OUTER_BOUND( '', #133, .T. );
#88 = ( BOUNDED_SURFACE(  )B_SPLINE_SURFACE( 3, 3, ( ( #136, #137, #138, #139, #140, #141, #142 ), ( #143, #144, #145, #146, #147, #148, #149 ), ( #150, #151, #152, #153, #154, #155, #156 ), ( #157, #158, #159, #160, #161, #162, #163 ) ), .UNSPECIFIED., .F., .T., .F. )B_SPLINE_SURFACE_WITH_KNOTS( ( 4, 4 ), ( 4, 3, 4 ), ( 0.000000000000000, 6.28318530717959 ), ( -1.30215898558165, -0.962209677171958, -0.622260368762261 ), .UNSPECIFIED. )GEOMETRIC_REPRESENTATION_ITEM(  )RATIONAL_B_SPLINE_SURFACE( ( ( 1.00000000000000, 0.333333333333333, 0.333333333333333, 1.00000000000000, 0.333333333333333, 0.333333333333333, 1.00000000000000 ), ( 0.961847712872078, 0.320615904290693, 0.320615904290693, 0.961847712872078, 0.320615904290693, 0.320615904290693, 0.961847712872078 ), ( 0.961847712872078, 0.320615904290693, 0.320615904290693, 0.961847712872078, 0.320615904290693, 0.320615904290693, 0.961847712872078 ), ( 1.00000000000000, 0.333333333333333, 0.333333333333333, 1.00000000000000, 0.333333333333333, 0.333333333333333, 1.00000000000000 ) ) )REPRESENTATION_ITEM( '' )SURFACE(  ) );
#89 = SURFACE_STYLE_USAGE( .BOTH., #169 );
#90 = FACE_BOUND( '', #170, .T. );
#91 = FACE_OUTER_BOUND( '', #171, .T. );
#92 = PLANE( '', #172 );
#93 = SURFACE_STYLE_USAGE( .BOTH., #173 );
#94 = FACE_OUTER_BOUND( '', #174, .T. );
#95 = FACE_OUTER_BOUND( '', #175, .T. );
#96 = CYLINDRICAL_SURFACE( '', #176, 4.00000000000000 );
#97 = SURFACE_STYLE_USAGE( .BOTH., #177 );
#98 = FACE_OUTER_BOUND( '', #178, .T. );
#99 = FACE_OUTER_BOUND( '', #179, .T. );
#100 = TOROIDAL_SURFACE( '', #180, 16.0000000000000, 4.00000000000000 );
#101 = SURFACE_STYLE_USAGE( .BOTH., #181 );
#102 = FACE_OUTER_BOUND( '', #182, .T. );
#103 = FACE_OUTER_BOUND( '', #183, .T. );
#104 = CYLINDRICAL_SURFACE( '', #184, 7.50000000000000 );
#105 = SURFACE_STYLE_USAGE( .BOTH., #185 );
#106 = FACE_OUTER_BOUND( '', #186, .T. );
#107 = FACE_OUTER_BOUND( '', #187, .T. );
#108 = CYLINDRICAL_SURFACE( '', #188, 20.0000000000000 );
#109 = PRODUCT_CONTEXT( '', #20, 'mechanical' );
#110 = PRODUCT_DEFINITION_FORMATION_WITH_SPECIFIED_SOURCE( ' ', 'NONE', #53, .NOT_KNOWN. );
#111 = CLOSED_SHELL( '', ( #34, #50, #42, #48, #52, #40, #36, #44, #46, #38 ) );
#112 = CARTESIAN_POINT( '', ( 0.000000000000000, 0.000000000000000, 0.000000000000000 ) );
#113 = DIRECTION( '', ( 0.000000000000000, 0.000000000000000, 1.00000000000000 ) );
#114 = DIRECTION( '', ( 1.00000000000000, 0.000000000000000, 0.000000000000000 ) );
#115 =  ( LENGTH_UNIT(  )NAMED_UNIT( #62 )SI_UNIT( .MILLI., .METRE. ) );
#116 = SURFACE_SIDE_STYLE( '', ( #190 ) );
#117 = VERTEX_LOOP( '', #191 );
#118 = EDGE_LOOP( '', ( #192 ) );
#119 = AXIS2_PLACEMENT_3D( '', #193, #194, #195 );
#120 = SURFACE_SIDE_STYLE( '', ( #196 ) );
#121 = EDGE_LOOP( '', ( #197 ) );
#122 = EDGE_LOOP( '', ( #198 ) );
#123 = AXIS2_PLACEMENT_3D( '', #199, #200, #201 );
#124 = SURFACE_SIDE_STYLE( '', ( #202 ) );
#125 = EDGE_LOOP( '', ( #203 ) );
#126 = AXIS2_PLACEMENT_3D( '', #204, #205, #206 );
#127 = SURFACE_SIDE_STYLE( '', ( #207 ) );
#128 = EDGE_LOOP( '', ( #208 ) );
#129 = EDGE_LOOP( '', ( #209 ) );
#130 = AXIS2_PLACEMENT_3D( '', #210, #211, #212 );
#131 = SURFACE_SIDE_STYLE( '', ( #213 ) );
#132 = EDGE_LOOP( '', ( #214 ) );
#133 = EDGE_LOOP( '', ( #215 ) );
#136 = CARTESIAN_POINT( '', ( 0.000000000000000, 9.11753576632573, -19.2502520995760 ) );
#137 = CARTESIAN_POINT( '', ( 38.5005041991520, 9.11753576632573, -19.2502520995760 ) );
#138 = CARTESIAN_POINT( '', ( 38.5005041991520, 9.11753576632573, 19.2502520995760 ) );
#139 = CARTESIAN_POINT( '', ( 0.000000000000000, 9.11753576632573, 19.2502520995760 ) );
#140 = CARTESIAN_POINT( '', ( -38.5005041991520, 9.11753576632573, 19.2502520995760 ) );
#141 = CARTESIAN_POINT( '', ( -38.5005041991520, 9.11753576632573, -19.2502520995760 ) );
#142 = CARTESIAN_POINT( '', ( 0.000000000000000, 9.11753576632573, -19.2502520995760 ) );
#143 = CARTESIAN_POINT( '', ( 0.000000000000000, 13.1504679388333, -16.3573212453704 ) );
#144 = CARTESIAN_POINT( '', ( 32.7146424907408, 13.1504679388333, -16.3573212453704 ) );
#145 = CARTESIAN_POINT( '', ( 32.7146424907408, 13.1504679388333, 16.3573212453704 ) );
#146 = CARTESIAN_POINT( '', ( 0.000000000000000, 13.1504679388333, 16.3573212453704 ) );
#147 = CARTESIAN_POINT( '', ( -32.7146424907408, 13.1504679388333, 16.3573212453704 ) );
#148 = CARTESIAN_POINT( '', ( -32.7146424907408, 13.1504679388333, -16.3573212453704 ) );
#149 = CARTESIAN_POINT( '', ( 0.000000000000000, 13.1504679388333, -16.3573212453704 ) );
#150 = CARTESIAN_POINT( '', ( 0.000000000000000, 15.9879848873214, -12.2852101955211 ) );
#151 = CARTESIAN_POINT( '', ( 24.5704203910422, 15.9879848873214, -12.2852101955211 ) );
#152 = CARTESIAN_POINT( '', ( 24.5704203910422, 15.9879848873214, 12.2852101955211 ) );
#153 = CARTESIAN_POINT( '', ( 0.000000000000000, 15.9879848873214, 12.2852101955211 ) );
#154 = CARTESIAN_POINT( '', ( -24.5704203910422, 15.9879848873214, 12.2852101955211 ) );
#155 = CARTESIAN_POINT( '', ( -24.5704203910422, 15.9879848873214, -12.2852101955211 ) );
#156 = CARTESIAN_POINT( '', ( 0.000000000000000, 15.9879848873214, -12.2852101955211 ) );
#157 = CARTESIAN_POINT( '', ( 0.000000000000000, 17.3053133277427, -7.50000000000000 ) );
#158 = CARTESIAN_POINT( '', ( 15.0000000000000, 17.3053133277427, -7.50000000000000 ) );
#159 = CARTESIAN_POINT( '', ( 15.0000000000000, 17.3053133277427, 7.50000000000000 ) );
#160 = CARTESIAN_POINT( '', ( 0.000000000000000, 17.3053133277427, 7.50000000000000 ) );
#161 = CARTESIAN_POINT( '', ( -15.0000000000000, 17.3053133277427, 7.50000000000000 ) );
#162 = CARTESIAN_POINT( '', ( -15.0000000000000, 17.3053133277427, -7.50000000000000 ) );
#163 = CARTESIAN_POINT( '', ( 0.000000000000000, 17.3053133277427, -7.50000000000000 ) );
#169 = SURFACE_SIDE_STYLE( '', ( #216 ) );
#170 = EDGE_LOOP( '', ( #217 ) );
#171 = EDGE_LOOP( '', ( #218 ) );
#172 = AXIS2_PLACEMENT_3D( '', #219, #220, #221 );
#173 = SURFACE_SIDE_STYLE( '', ( #222 ) );
#174 = EDGE_LOOP( '', ( #223 ) );
#175 = EDGE_LOOP( '', ( #224 ) );
#176 = AXIS2_PLACEMENT_3D( '', #225, #226, #227 );
#177 = SURFACE_SIDE_STYLE( '', ( #228 ) );
#178 = EDGE_LOOP( '', ( #229 ) );
#179 = EDGE_LOOP( '', ( #230 ) );
#180 = AXIS2_PLACEMENT_3D( '', #231, #232, #233 );
#181 = SURFACE_SIDE_STYLE( '', ( #234 ) );
#182 = EDGE_LOOP( '', ( #235 ) );
#183 = EDGE_LOOP( '', ( #236 ) );
#184 = AXIS2_PLACEMENT_3D( '', #237, #238, #239 );
#185 = SURFACE_SIDE_STYLE( '', ( #240 ) );
#186 = EDGE_LOOP( '', ( #241 ) );
#187 = EDGE_LOOP( '', ( #242 ) );
#188 = AXIS2_PLACEMENT_3D( '', #243, #244, #245 );
#190 = SURFACE_STYLE_FILL_AREA( #246 );
#191 = VERTEX_POINT( '', #247 );
#192 = ORIENTED_EDGE( '', *, *, #248, .F. );
#193 = CARTESIAN_POINT( '', ( -1.73472347597681E-15, 15.5000000000000, 0.000000000000000 ) );
#194 = DIRECTION( '', ( 0.000000000000000, -1.00000000000000, 0.000000000000000 ) );
#195 = DIRECTION( '', ( -1.00000000000000, 0.000000000000000, 0.000000000000000 ) );
#196 = SURFACE_STYLE_FILL_AREA( #249 );
#197 = ORIENTED_EDGE( '', *, *, #250, .F. );
#198 = ORIENTED_EDGE( '', *, *, #251, .T. );
#199 = CARTESIAN_POINT( '', ( 0.000000000000000, 0.399999999999999, 0.000000000000000 ) );
#200 = DIRECTION( '', ( -0.000000000000000, 1.00000000000000, 0.000000000000000 ) );
#201 = DIRECTION( '', ( 0.000000000000000, 0.000000000000000, -1.00000000000000 ) );
#202 = SURFACE_STYLE_FILL_AREA( #252 );
#203 = ORIENTED_EDGE( '', *, *, #253, .T. );
#204 = CARTESIAN_POINT( '', ( 4.00000000000000, 0.399999999999999, 0.000000000000000 ) );
#205 = DIRECTION( '', ( 0.000000000000000, 1.00000000000000, 0.000000000000000 ) );
#206 = DIRECTION( '', ( 0.000000000000000, -0.000000000000000, 1.00000000000000 ) );
#207 = SURFACE_STYLE_FILL_AREA( #254 );
#208 = ORIENTED_EDGE( '', *, *, #251, .F. );
#209 = ORIENTED_EDGE( '', *, *, #255, .T. );
#210 = CARTESIAN_POINT( '', ( 20.0000000000000, 0.000000000000000, 0.000000000000000 ) );
#211 = DIRECTION( '', ( 0.000000000000000, 1.00000000000000, 0.000000000000000 ) );
#212 = DIRECTION( '', ( 0.000000000000000, -0.000000000000000, 1.00000000000000 ) );
#213 = SURFACE_STYLE_FILL_AREA( #256 );
#214 = ORIENTED_EDGE( '', *, *, #257, .T. );
#215 = ORIENTED_EDGE( '', *, *, #258, .F. );
#216 = SURFACE_STYLE_FILL_AREA( #259 );
#217 = ORIENTED_EDGE( '', *, *, #260, .F. );
#218 = ORIENTED_EDGE( '', *, *, #250, .T. );
#219 = CARTESIAN_POINT( '', ( 17.6000000000000, 5.50000000000000, 0.000000000000000 ) );
#220 = DIRECTION( '', ( 0.000000000000000, 1.00000000000000, 0.000000000000000 ) );
#221 = DIRECTION( '', ( 0.000000000000000, -0.000000000000000, 1.00000000000000 ) );
#222 = SURFACE_STYLE_FILL_AREA( #261 );
#223 = ORIENTED_EDGE( '', *, *, #253, .F. );
#224 = ORIENTED_EDGE( '', *, *, #260, .T. );
#225 = CARTESIAN_POINT( '', ( 0.000000000000000, 0.399999999999999, 0.000000000000000 ) );
#226 = DIRECTION( '', ( -0.000000000000000, 1.00000000000000, 0.000000000000000 ) );
#227 = DIRECTION( '', ( 0.000000000000000, 0.000000000000000, -1.00000000000000 ) );
#228 = SURFACE_STYLE_FILL_AREA( #262 );
#229 = ORIENTED_EDGE( '', *, *, #258, .T. );
#230 = ORIENTED_EDGE( '', *, *, #263, .F. );
#231 = CARTESIAN_POINT( '', ( 0.000000000000000, 6.78604240600883, 0.000000000000000 ) );
#232 = DIRECTION( '', ( 0.000000000000000, -1.00000000000000, -0.000000000000000 ) );
#233 = DIRECTION( '', ( 0.000000000000000, 0.000000000000000, -1.00000000000000 ) );
#234 = SURFACE_STYLE_FILL_AREA( #264 );
#235 = ORIENTED_EDGE( '', *, *, #248, .T. );
#236 = ORIENTED_EDGE( '', *, *, #257, .F. );
#237 = CARTESIAN_POINT( '', ( 0.000000000000000, 8.00000000000000, 0.000000000000000 ) );
#238 = DIRECTION( '', ( -0.000000000000000, 1.00000000000000, 0.000000000000000 ) );
#239 = DIRECTION( '', ( 0.000000000000000, 0.000000000000000, -1.00000000000000 ) );
#240 = SURFACE_STYLE_FILL_AREA( #265 );
#241 = ORIENTED_EDGE( '', *, *, #255, .F. );
#242 = ORIENTED_EDGE( '', *, *, #263, .T. );
#243 = CARTESIAN_POINT( '', ( 0.000000000000000, 0.399999999999999, 0.000000000000000 ) );
#244 = DIRECTION( '', ( -0.000000000000000, 1.00000000000000, 0.000000000000000 ) );
#245 = DIRECTION( '', ( 0.000000000000000, 0.000000000000000, -1.00000000000000 ) );
#246 = FILL_AREA_STYLE( '', ( #266 ) );
#247 = CARTESIAN_POINT( '', ( -2.19396602565706E-15, 8.00000000000000, 0.000000000000000 ) );
#248 = EDGE_CURVE( '', #267, #267, #268, .T. );
#249 = FILL_AREA_STYLE( '', ( #269 ) );
#250 = EDGE_CURVE( '', #270, #270, #271, .T. );
#251 = EDGE_CURVE( '', #272, #272, #273, .T. );
#252 = FILL_AREA_STYLE( '', ( #274 ) );
#253 = EDGE_CURVE( '', #275, #275, #276, .T. );
#254 = FILL_AREA_STYLE( '', ( #277 ) );
#255 = EDGE_CURVE( '', #278, #278, #279, .T. );
#256 = FILL_AREA_STYLE( '', ( #280 ) );
#257 = EDGE_CURVE( '', #281, #281, #282, .T. );
#258 = EDGE_CURVE( '', #283, #283, #284, .T. );
#259 = FILL_AREA_STYLE( '', ( #285 ) );
#260 = EDGE_CURVE( '', #286, #286, #287, .T. );
#261 = FILL_AREA_STYLE( '', ( #288 ) );
#262 = FILL_AREA_STYLE( '', ( #289 ) );
#263 = EDGE_CURVE( '', #290, #290, #291, .T. );
#264 = FILL_AREA_STYLE( '', ( #292 ) );
#265 = FILL_AREA_STYLE( '', ( #293 ) );
#266 = FILL_AREA_STYLE_COLOUR( '', #294 );
#267 = VERTEX_POINT( '', #295 );
#268 = CIRCLE( '', #296, 7.50000000000000 );
#269 = FILL_AREA_STYLE_COLOUR( '', #297 );
#270 = VERTEX_POINT( '', #298 );
#271 = CIRCLE( '', #299, 17.6000000000000 );
#272 = VERTEX_POINT( '', #300 );
#273 = CIRCLE( '', #301, 17.6000000000000 );
#274 = FILL_AREA_STYLE_COLOUR( '', #302 );
#275 = VERTEX_POINT( '', #303 );
#276 = CIRCLE( '', #304, 4.00000000000000 );
#277 = FILL_AREA_STYLE_COLOUR( '', #305 );
#278 = VERTEX_POINT( '', #306 );
#279 = CIRCLE( '', #307, 20.0000000000000 );
#280 = FILL_AREA_STYLE_COLOUR( '', #308 );
#281 = VERTEX_POINT( '', #309 );
#282 = CIRCLE( '', #310, 7.50000000000000 );
#283 = VERTEX_POINT( '', #311 );
#284 = CIRCLE( '', #312, 19.2502520996000 );
#285 = FILL_AREA_STYLE_COLOUR( '', #313 );
#286 = VERTEX_POINT( '', #314 );
#287 = CIRCLE( '', #315, 4.00000000000000 );
#288 = FILL_AREA_STYLE_COLOUR( '', #316 );
#289 = FILL_AREA_STYLE_COLOUR( '', #317 );
#290 = VERTEX_POINT( '', #318 );
#291 = CIRCLE( '', #319, 20.0000000000000 );
#292 = FILL_AREA_STYLE_COLOUR( '', #320 );
#293 = FILL_AREA_STYLE_COLOUR( '', #321 );
#294 = COLOUR_RGB( '', 0.689999997600000, 0.689999997600000, 0.689999997600000 );
#295 = CARTESIAN_POINT( '', ( 0.000000000000000, 15.5000000000000, -7.50000000000000 ) );
#296 = AXIS2_PLACEMENT_3D( '', #322, #323, #324 );
#297 = COLOUR_RGB( '', 0.689999997600000, 0.689999997600000, 0.689999997600000 );
#298 = CARTESIAN_POINT( '', ( 0.000000000000000, 5.50000000000000, -17.6000000000000 ) );
#299 = AXIS2_PLACEMENT_3D( '', #325, #326, #327 );
#300 = CARTESIAN_POINT( '', ( 0.000000000000000, 0.000000000000000, -17.6000000000000 ) );
#301 = AXIS2_PLACEMENT_3D( '', #328, #329, #330 );
#302 = COLOUR_RGB( '', 0.689999997600000, 0.689999997600000, 0.689999997600000 );
#303 = CARTESIAN_POINT( '', ( 0.000000000000000, 0.400000000000000, -4.00000000000000 ) );
#304 = AXIS2_PLACEMENT_3D( '', #331, #332, #333 );
#305 = COLOUR_RGB( '', 0.689999997600000, 0.689999997600000, 0.689999997600000 );
#306 = CARTESIAN_POINT( '', ( 0.000000000000000, 0.000000000000000, -20.0000000000000 ) );
#307 = AXIS2_PLACEMENT_3D( '', #334, #335, #336 );
#308 = COLOUR_RGB( '', 0.689999997600000, 0.689999997600000, 0.689999997600000 );
#309 = CARTESIAN_POINT( '', ( 0.000000000000000, 17.3053133277427, -7.50000000000000 ) );
#310 = AXIS2_PLACEMENT_3D( '', #337, #338, #339 );
#311 = CARTESIAN_POINT( '', ( 0.000000000000000, 9.11753576632572, -19.2502520995760 ) );
#312 = AXIS2_PLACEMENT_3D( '', #340, #341, #342 );
#313 = COLOUR_RGB( '', 0.689999997600000, 0.689999997600000, 0.689999997600000 );
#314 = CARTESIAN_POINT( '', ( 0.000000000000000, 5.50000000000000, -4.00000000000000 ) );
#315 = AXIS2_PLACEMENT_3D( '', #343, #344, #345 );
#316 = COLOUR_RGB( '', 0.689999997600000, 0.689999997600000, 0.689999997600000 );
#317 = COLOUR_RGB( '', 0.689999997600000, 0.689999997600000, 0.689999997600000 );
#318 = CARTESIAN_POINT( '', ( 0.000000000000000, 6.78604240600881, -20.0000000000000 ) );
#319 = AXIS2_PLACEMENT_3D( '', #346, #347, #348 );
#320 = COLOUR_RGB( '', 0.689999997600000, 0.689999997600000, 0.689999997600000 );
#321 = COLOUR_RGB( '', 0.689999997600000, 0.689999997600000, 0.689999997600000 );
#322 = CARTESIAN_POINT( '', ( 0.000000000000000, 15.5000000000000, 0.000000000000000 ) );
#323 = DIRECTION( '', ( 0.000000000000000, -1.00000000000000, -0.000000000000000 ) );
#324 = DIRECTION( '', ( 0.000000000000000, 0.000000000000000, -1.00000000000000 ) );
#325 = CARTESIAN_POINT( '', ( 0.000000000000000, 5.50000000000000, 0.000000000000000 ) );
#326 = DIRECTION( '', ( 0.000000000000000, -1.00000000000000, -0.000000000000000 ) );
#327 = DIRECTION( '', ( 0.000000000000000, 0.000000000000000, -1.00000000000000 ) );
#328 = CARTESIAN_POINT( '', ( 0.000000000000000, 0.000000000000000, 0.000000000000000 ) );
#329 = DIRECTION( '', ( 0.000000000000000, -1.00000000000000, -0.000000000000000 ) );
#330 = DIRECTION( '', ( 0.000000000000000, 0.000000000000000, -1.00000000000000 ) );
#331 = CARTESIAN_POINT( '', ( 0.000000000000000, 0.400000000000000, 0.000000000000000 ) );
#332 = DIRECTION( '', ( 0.000000000000000, -1.00000000000000, -0.000000000000000 ) );
#333 = DIRECTION( '', ( 0.000000000000000, 0.000000000000000, -1.00000000000000 ) );
#334 = CARTESIAN_POINT( '', ( 0.000000000000000, 0.000000000000000, 0.000000000000000 ) );
#335 = DIRECTION( '', ( 0.000000000000000, -1.00000000000000, -0.000000000000000 ) );
#336 = DIRECTION( '', ( 0.000000000000000, 0.000000000000000, -1.00000000000000 ) );
#337 = CARTESIAN_POINT( '', ( 0.000000000000000, 17.3053133277427, 0.000000000000000 ) );
#338 = DIRECTION( '', ( 0.000000000000000, -1.00000000000000, -0.000000000000000 ) );
#339 = DIRECTION( '', ( 0.000000000000000, 0.000000000000000, -1.00000000000000 ) );
#340 = CARTESIAN_POINT( '', ( 0.000000000000000, 9.11753576632572, 0.000000000000000 ) );
#341 = DIRECTION( '', ( 0.000000000000000, -1.00000000000000, -0.000000000000000 ) );
#342 = DIRECTION( '', ( 0.000000000000000, 0.000000000000000, -1.00000000000000 ) );
#343 = CARTESIAN_POINT( '', ( 0.000000000000000, 5.50000000000000, 0.000000000000000 ) );
#344 = DIRECTION( '', ( 0.000000000000000, -1.00000000000000, -0.000000000000000 ) );
#345 = DIRECTION( '', ( 0.000000000000000, 0.000000000000000, -1.00000000000000 ) );
#346 = CARTESIAN_POINT( '', ( 0.000000000000000, 6.78604240600881, 0.000000000000000 ) );
#347 = DIRECTION( '', ( 0.000000000000000, -1.00000000000000, -0.000000000000000 ) );
#348 = DIRECTION( '', ( 0.000000000000000, 0.000000000000000, -1.00000000000000 ) );
ENDSEC;
END-ISO-10303-21;
