ISO-10303-21;
HEADER;
FILE_DESCRIPTION( ( 'STEP AP214' ), '1' );
FILE_NAME( '//goodhand-server/Shared Folders/GoodHand Data/Kipp CAD/K0396/K0396.0875.stp', '2020-12-07T10:26:25', ( '' ), ( '' ), ' ', 'PARTsolutions', ' ' );
FILE_SCHEMA( ( 'AUTOMOTIVE_DESIGN { 1 0 10303 214 1 1 1 1 }' ) );
ENDSEC;
DATA;
#1 = MECHANICAL_DESIGN_GEOMETRIC_PRESENTATION_REPRESENTATION( ' ', ( #10, #11, #12, #13, #14, #15, #16, #17 ), #6 );
#2 = PRODUCT_DEFINITION_CONTEXT( '', #18, 'design' );
#3 = APPLICATION_PROTOCOL_DEFINITION( 'international standard', 'automotive_design', 2001, #18 );
#4 = PRODUCT_CATEGORY_RELATIONSHIP( 'NONE', 'NONE', #19, #20 );
#5 = SHAPE_DEFINITION_REPRESENTATION( #21, #22 );
#6 =  ( GEOMETRIC_REPRESENTATION_CONTEXT( 3 )GLOBAL_UNCERTAINTY_ASSIGNED_CONTEXT( ( #25 ) )GLOBAL_UNIT_ASSIGNED_CONTEXT( ( #27, #28, #29 ) )REPRESENTATION_CONTEXT( 'NONE', 'WORKSPACE' ) );
#10 = STYLED_ITEM( '', ( #31 ), #32 );
#11 = STYLED_ITEM( '', ( #33 ), #34 );
#12 = STYLED_ITEM( '', ( #35 ), #36 );
#13 = STYLED_ITEM( '', ( #37 ), #38 );
#14 = STYLED_ITEM( '', ( #39 ), #40 );
#15 = STYLED_ITEM( '', ( #41 ), #42 );
#16 = STYLED_ITEM( '', ( #43 ), #44 );
#17 = STYLED_ITEM( '', ( #45 ), #46 );
#18 = APPLICATION_CONTEXT( 'core data for automotive mechanical design processes' );
#19 = PRODUCT_CATEGORY( 'part', 'NONE' );
#20 = PRODUCT_RELATED_PRODUCT_CATEGORY( 'detail', ' ', ( #47 ) );
#21 = PRODUCT_DEFINITION_SHAPE( 'NONE', 'NONE', #48 );
#22 = ADVANCED_BREP_SHAPE_REPRESENTATION( '_K0396.0875', ( #49, #50 ), #6 );
#25 = UNCERTAINTY_MEASURE_WITH_UNIT( LENGTH_MEASURE( 0.00100000000000000 ), #27, '', '' );
#27 =  ( CONVERSION_BASED_UNIT( 'MILLIMETRE', #53 )LENGTH_UNIT(  )NAMED_UNIT( #56 ) );
#28 =  ( NAMED_UNIT( #58 )PLANE_ANGLE_UNIT(  )SI_UNIT( $, .RADIAN. ) );
#29 =  ( NAMED_UNIT( #58 )SI_UNIT( $, .STERADIAN. )SOLID_ANGLE_UNIT(  ) );
#31 = PRESENTATION_STYLE_ASSIGNMENT( ( #64 ) );
#32 = ADVANCED_FACE( '', ( #65, #66 ), #67, .T. );
#33 = PRESENTATION_STYLE_ASSIGNMENT( ( #68 ) );
#34 = ADVANCED_FACE( '', ( #69, #70 ), #71, .T. );
#35 = PRESENTATION_STYLE_ASSIGNMENT( ( #72 ) );
#36 = ADVANCED_FACE( '', ( #73, #74 ), #75, .T. );
#37 = PRESENTATION_STYLE_ASSIGNMENT( ( #76 ) );
#38 = ADVANCED_FACE( '', ( #77, #78 ), #79, .F. );
#39 = PRESENTATION_STYLE_ASSIGNMENT( ( #80 ) );
#40 = ADVANCED_FACE( '', ( #81, #82 ), #83, .T. );
#41 = PRESENTATION_STYLE_ASSIGNMENT( ( #84 ) );
#42 = ADVANCED_FACE( '', ( #85, #86 ), #87, .T. );
#43 = PRESENTATION_STYLE_ASSIGNMENT( ( #88 ) );
#44 = ADVANCED_FACE( '', ( #89, #90 ), #91, .F. );
#45 = PRESENTATION_STYLE_ASSIGNMENT( ( #92 ) );
#46 = ADVANCED_FACE( '', ( #93 ), #94, .F. );
#47 = PRODUCT( '_K0396.0875', '_K0396.0875', 'PART-_K0396.0875-DESC', ( #95 ) );
#48 = PRODUCT_DEFINITION( 'NONE', 'NONE', #96, #2 );
#49 = MANIFOLD_SOLID_BREP( '_K0396.0875', #97 );
#50 = AXIS2_PLACEMENT_3D( '', #98, #99, #100 );
#53 = LENGTH_MEASURE_WITH_UNIT( LENGTH_MEASURE( 1.00000000000000 ), #101 );
#56 = DIMENSIONAL_EXPONENTS( 1.00000000000000, 0.000000000000000, 0.000000000000000, 0.000000000000000, 0.000000000000000, 0.000000000000000, 0.000000000000000 );
#58 = DIMENSIONAL_EXPONENTS( 0.000000000000000, 0.000000000000000, 0.000000000000000, 0.000000000000000, 0.000000000000000, 0.000000000000000, 0.000000000000000 );
#64 = SURFACE_STYLE_USAGE( .BOTH., #102 );
#65 = FACE_BOUND( '', #103, .T. );
#66 = FACE_OUTER_BOUND( '', #104, .T. );
#67 = PLANE( '', #105 );
#68 = SURFACE_STYLE_USAGE( .BOTH., #106 );
#69 = FACE_OUTER_BOUND( '', #107, .T. );
#70 = FACE_OUTER_BOUND( '', #108, .T. );
#71 = CYLINDRICAL_SURFACE( '', #109, 4.00000000000000 );
#72 = SURFACE_STYLE_USAGE( .BOTH., #110 );
#73 = FACE_BOUND( '', #111, .T. );
#74 = FACE_OUTER_BOUND( '', #112, .T. );
#75 = SPHERICAL_SURFACE( '', #113, 9.00000000000000 );
#76 = SURFACE_STYLE_USAGE( .BOTH., #114 );
#77 = FACE_OUTER_BOUND( '', #115, .T. );
#78 = FACE_OUTER_BOUND( '', #116, .T. );
#79 = CYLINDRICAL_SURFACE( '', #117, 4.00000000000000 );
#80 = SURFACE_STYLE_USAGE( .BOTH., #118 );
#81 = FACE_BOUND( '', #119, .T. );
#82 = FACE_OUTER_BOUND( '', #120, .T. );
#83 = CONICAL_SURFACE( '', #121, 4.00000000000000, 0.785398163400000 );
#84 = SURFACE_STYLE_USAGE( .BOTH., #122 );
#85 = FACE_OUTER_BOUND( '', #123, .T. );
#86 = FACE_BOUND( '', #124, .T. );
#87 = PLANE( '', #125 );
#88 = SURFACE_STYLE_USAGE( .BOTH., #126 );
#89 = FACE_OUTER_BOUND( '', #127, .T. );
#90 = FACE_OUTER_BOUND( '', #128, .T. );
#91 = TOROIDAL_SURFACE( '', #129, 8.00000000000000, 4.00000000000000 );
#92 = SURFACE_STYLE_USAGE( .BOTH., #130 );
#93 = FACE_OUTER_BOUND( '', #131, .T. );
#94 = PLANE( '', #132 );
#95 = PRODUCT_CONTEXT( '', #18, 'mechanical' );
#96 = PRODUCT_DEFINITION_FORMATION_WITH_SPECIFIED_SOURCE( ' ', 'NONE', #47, .NOT_KNOWN. );
#97 = CLOSED_SHELL( '', ( #42, #46, #40, #34, #44, #36, #32, #38 ) );
#98 = CARTESIAN_POINT( '', ( 0.000000000000000, 0.000000000000000, 0.000000000000000 ) );
#99 = DIRECTION( '', ( 0.000000000000000, 0.000000000000000, 1.00000000000000 ) );
#100 = DIRECTION( '', ( 1.00000000000000, 0.000000000000000, 0.000000000000000 ) );
#101 =  ( LENGTH_UNIT(  )NAMED_UNIT( #56 )SI_UNIT( .MILLI., .METRE. ) );
#102 = SURFACE_SIDE_STYLE( '', ( #134 ) );
#103 = EDGE_LOOP( '', ( #135 ) );
#104 = EDGE_LOOP( '', ( #136, #137 ) );
#105 = AXIS2_PLACEMENT_3D( '', #138, #139, #140 );
#106 = SURFACE_SIDE_STYLE( '', ( #141 ) );
#107 = EDGE_LOOP( '', ( #142 ) );
#108 = EDGE_LOOP( '', ( #143 ) );
#109 = AXIS2_PLACEMENT_3D( '', #144, #145, #146 );
#110 = SURFACE_SIDE_STYLE( '', ( #147 ) );
#111 = VERTEX_LOOP( '', #148 );
#112 = EDGE_LOOP( '', ( #149, #150, #151, #152 ) );
#113 = AXIS2_PLACEMENT_3D( '', #153, #154, #155 );
#114 = SURFACE_SIDE_STYLE( '', ( #156 ) );
#115 = EDGE_LOOP( '', ( #157 ) );
#116 = EDGE_LOOP( '', ( #158 ) );
#117 = AXIS2_PLACEMENT_3D( '', #159, #160, #161 );
#118 = SURFACE_SIDE_STYLE( '', ( #162 ) );
#119 = EDGE_LOOP( '', ( #163 ) );
#120 = EDGE_LOOP( '', ( #164 ) );
#121 = AXIS2_PLACEMENT_3D( '', #165, #166, #167 );
#122 = SURFACE_SIDE_STYLE( '', ( #168 ) );
#123 = EDGE_LOOP( '', ( #169, #170 ) );
#124 = EDGE_LOOP( '', ( #171 ) );
#125 = AXIS2_PLACEMENT_3D( '', #172, #173, #174 );
#126 = SURFACE_SIDE_STYLE( '', ( #175 ) );
#127 = EDGE_LOOP( '', ( #176 ) );
#128 = EDGE_LOOP( '', ( #177, #178, #179, #180 ) );
#129 = AXIS2_PLACEMENT_3D( '', #181, #182, #183 );
#130 = SURFACE_SIDE_STYLE( '', ( #184 ) );
#131 = EDGE_LOOP( '', ( #185 ) );
#132 = AXIS2_PLACEMENT_3D( '', #186, #187, #188 );
#134 = SURFACE_STYLE_FILL_AREA( #189 );
#135 = ORIENTED_EDGE( '', *, *, #190, .F. );
#136 = ORIENTED_EDGE( '', *, *, #191, .F. );
#137 = ORIENTED_EDGE( '', *, *, #192, .T. );
#138 = CARTESIAN_POINT( '', ( 0.000000000000000, 9.00000000000000, 4.50000000000000 ) );
#139 = DIRECTION( '', ( 0.000000000000000, 0.000000000000000, 1.00000000000000 ) );
#140 = DIRECTION( '', ( 1.00000000000000, 0.000000000000000, -0.000000000000000 ) );
#141 = SURFACE_STYLE_FILL_AREA( #193 );
#142 = ORIENTED_EDGE( '', *, *, #194, .F. );
#143 = ORIENTED_EDGE( '', *, *, #195, .T. );
#144 = CARTESIAN_POINT( '', ( 50.0000000000000, 3.28030392628755E-16, 0.000000000000000 ) );
#145 = DIRECTION( '', ( -1.00000000000000, 1.31212157051502E-17, 0.000000000000000 ) );
#146 = DIRECTION( '', ( 1.31212157051502E-17, 1.00000000000000, 0.000000000000000 ) );
#147 = SURFACE_STYLE_FILL_AREA( #196 );
#148 = VERTEX_POINT( '', #197 );
#149 = ORIENTED_EDGE( '', *, *, #198, .F. );
#150 = ORIENTED_EDGE( '', *, *, #191, .T. );
#151 = ORIENTED_EDGE( '', *, *, #199, .F. );
#152 = ORIENTED_EDGE( '', *, *, #200, .T. );
#153 = CARTESIAN_POINT( '', ( -3.46944695195361E-15, 6.07153216591882E-15, 0.000000000000000 ) );
#154 = DIRECTION( '', ( 1.00000000000000, 0.000000000000000, 0.000000000000000 ) );
#155 = DIRECTION( '', ( 0.000000000000000, 1.00000000000000, 0.000000000000000 ) );
#156 = SURFACE_STYLE_FILL_AREA( #201 );
#157 = ORIENTED_EDGE( '', *, *, #190, .T. );
#158 = ORIENTED_EDGE( '', *, *, #202, .T. );
#159 = CARTESIAN_POINT( '', ( 0.000000000000000, 0.000000000000000, 4.50100000000000 ) );
#160 = DIRECTION( '', ( -0.000000000000000, -0.000000000000000, 1.00000000000000 ) );
#161 = DIRECTION( '', ( -1.00000000000000, 0.000000000000000, 0.000000000000000 ) );
#162 = SURFACE_STYLE_FILL_AREA( #203 );
#163 = ORIENTED_EDGE( '', *, *, #204, .F. );
#164 = ORIENTED_EDGE( '', *, *, #194, .T. );
#165 = CARTESIAN_POINT( '', ( 74.2330000000000, 1.00639724458499E-17, 0.000000000000000 ) );
#166 = DIRECTION( '', ( -1.00000000000000, 1.31212157051502E-17, -0.000000000000000 ) );
#167 = DIRECTION( '', ( -1.31212157051502E-17, -1.00000000000000, 0.000000000000000 ) );
#168 = SURFACE_STYLE_FILL_AREA( #205 );
#169 = ORIENTED_EDGE( '', *, *, #200, .F. );
#170 = ORIENTED_EDGE( '', *, *, #206, .T. );
#171 = ORIENTED_EDGE( '', *, *, #202, .F. );
#172 = CARTESIAN_POINT( '', ( 0.000000000000000, 0.000000000000000, -4.50000000000000 ) );
#173 = DIRECTION( '', ( -0.000000000000000, 0.000000000000000, -1.00000000000000 ) );
#174 = DIRECTION( '', ( -1.00000000000000, 0.000000000000000, 0.000000000000000 ) );
#175 = SURFACE_STYLE_FILL_AREA( #207 );
#176 = ORIENTED_EDGE( '', *, *, #195, .F. );
#177 = ORIENTED_EDGE( '', *, *, #192, .F. );
#178 = ORIENTED_EDGE( '', *, *, #198, .T. );
#179 = ORIENTED_EDGE( '', *, *, #206, .F. );
#180 = ORIENTED_EDGE( '', *, *, #199, .T. );
#181 = CARTESIAN_POINT( '', ( 10.2469507659596, 0.000000000000000, 0.000000000000000 ) );
#182 = DIRECTION( '', ( 1.00000000000000, -1.31212157051502E-17, -0.000000000000000 ) );
#183 = DIRECTION( '', ( 1.31212157051502E-17, 1.00000000000000, 0.000000000000000 ) );
#184 = SURFACE_STYLE_FILL_AREA( #208 );
#185 = ORIENTED_EDGE( '', *, *, #204, .T. );
#186 = CARTESIAN_POINT( '', ( 75.0000000000000, 3.23299999999999, 0.000000000000000 ) );
#187 = DIRECTION( '', ( -1.00000000000000, 1.31212157051502E-17, 0.000000000000000 ) );
#188 = DIRECTION( '', ( -1.31212157051502E-17, -1.00000000000000, 0.000000000000000 ) );
#189 = FILL_AREA_STYLE( '', ( #209 ) );
#190 = EDGE_CURVE( '', #210, #210, #211, .T. );
#191 = EDGE_CURVE( '', #212, #213, #214, .F. );
#192 = EDGE_CURVE( '', #212, #213, #215, .T. );
#193 = FILL_AREA_STYLE( '', ( #216 ) );
#194 = EDGE_CURVE( '', #217, #217, #218, .T. );
#195 = EDGE_CURVE( '', #219, #219, #220, .T. );
#196 = FILL_AREA_STYLE( '', ( #221 ) );
#197 = CARTESIAN_POINT( '', ( -9.00000000000000, 6.74071416688149E-15, 0.000000000000000 ) );
#198 = EDGE_CURVE( '', #212, #222, #223, .T. );
#199 = EDGE_CURVE( '', #224, #213, #225, .T. );
#200 = EDGE_CURVE( '', #224, #222, #226, .F. );
#201 = FILL_AREA_STYLE( '', ( #227 ) );
#202 = EDGE_CURVE( '', #228, #228, #229, .T. );
#203 = FILL_AREA_STYLE( '', ( #230 ) );
#204 = EDGE_CURVE( '', #231, #231, #232, .T. );
#205 = FILL_AREA_STYLE( '', ( #233 ) );
#206 = EDGE_CURVE( '', #224, #222, #234, .T. );
#207 = FILL_AREA_STYLE( '', ( #235 ) );
#208 = FILL_AREA_STYLE( '', ( #236 ) );
#209 = FILL_AREA_STYLE_COLOUR( '', #237 );
#210 = VERTEX_POINT( '', #238 );
#211 = CIRCLE( '', #239, 4.00000000000000 );
#212 = VERTEX_POINT( '', #240 );
#213 = VERTEX_POINT( '', #241 );
#214 = CIRCLE( '', #242, 7.79422863410000 );
#215 = B_SPLINE_CURVE_WITH_KNOTS( '', 3, ( #243, #244, #245, #246, #247, #248, #249, #250, #251, #252, #253, #254, #255, #256, #257, #258, #259, #260, #261, #262 ), .UNSPECIFIED., .F., .F., ( 4, 2, 2, 2, 2, 2, 2, 2, 2, 4 ), ( 0.0500606439694656, 0.0509115203594734, 0.0517623967494812, 0.0526132731394891, 0.0530387113344930, 0.0532514304319949, 0.0534641495294969, 0.0551659023095126, 0.0560167786995204, 0.0568676550895282 ), .UNSPECIFIED. );
#216 = FILL_AREA_STYLE_COLOUR( '', #263 );
#217 = VERTEX_POINT( '', #264 );
#218 = CIRCLE( '', #265, 4.00000000000000 );
#219 = VERTEX_POINT( '', #266 );
#220 = CIRCLE( '', #267, 4.00000000000000 );
#221 = FILL_AREA_STYLE_COLOUR( '', #268 );
#222 = VERTEX_POINT( '', #269 );
#223 = CIRCLE( '', #270, 5.53846153850000 );
#224 = VERTEX_POINT( '', #271 );
#225 = CIRCLE( '', #272, 5.53846153850000 );
#226 = CIRCLE( '', #273, 7.79422863410000 );
#227 = FILL_AREA_STYLE_COLOUR( '', #274 );
#228 = VERTEX_POINT( '', #275 );
#229 = CIRCLE( '', #276, 4.00000000000000 );
#230 = FILL_AREA_STYLE_COLOUR( '', #277 );
#231 = VERTEX_POINT( '', #278 );
#232 = CIRCLE( '', #279, 3.23300000000000 );
#233 = FILL_AREA_STYLE_COLOUR( '', #280 );
#234 = B_SPLINE_CURVE_WITH_KNOTS( '', 3, ( #281, #282, #283, #284, #285, #286, #287, #288, #289, #290, #291, #292, #293, #294, #295, #296, #297, #298, #299, #300 ), .UNSPECIFIED., .F., .F., ( 4, 2, 2, 2, 2, 2, 2, 2, 2, 4 ), ( 0.0500606439694656, 0.0509115203594734, 0.0517623967494812, 0.0526132731394891, 0.0530387113344930, 0.0532514304319949, 0.0534641495294969, 0.0551659023095126, 0.0560167786995204, 0.0568676550895282 ), .UNSPECIFIED. );
#235 = FILL_AREA_STYLE_COLOUR( '', #301 );
#236 = FILL_AREA_STYLE_COLOUR( '', #302 );
#237 = COLOUR_RGB( '', 0.689999997600000, 0.689999997600000, 0.689999997600000 );
#238 = CARTESIAN_POINT( '', ( 4.00000000000000, 0.000000000000000, 4.50000000000000 ) );
#239 = AXIS2_PLACEMENT_3D( '', #303, #304, #305 );
#240 = CARTESIAN_POINT( '', ( 7.09404283797203, -3.22870813376151, 4.50000000000000 ) );
#241 = CARTESIAN_POINT( '', ( 7.09404283797201, 3.22870813376152, 4.50000000000000 ) );
#242 = AXIS2_PLACEMENT_3D( '', #306, #307, #308 );
#243 = CARTESIAN_POINT( '', ( 7.09404283797191, -3.22870813376146, 4.50000000000000 ) );
#244 = CARTESIAN_POINT( '', ( 7.21447247429766, -2.96410292212191, 4.50000000000000 ) );
#245 = CARTESIAN_POINT( '', ( 7.34231483127093, -2.70234599049847, 4.50000000000000 ) );
#246 = CARTESIAN_POINT( '', ( 7.60085724960473, -2.17993017784397, 4.50000000000000 ) );
#247 = CARTESIAN_POINT( '', ( 7.73180626427188, -1.91936695517668, 4.50000000000000 ) );
#248 = CARTESIAN_POINT( '', ( 7.97593504333407, -1.39141281420131, 4.50000000000000 ) );
#249 = CARTESIAN_POINT( '', ( 8.08952956538406, -1.12418126328293, 4.50000000000000 ) );
#250 = CARTESIAN_POINT( '', ( 8.21682142360370, -0.706773127386300, 4.50000000000000 ) );
#251 = CARTESIAN_POINT( '', ( 8.25184837268528, -0.564792279587073, 4.50000000000000 ) );
#252 = CARTESIAN_POINT( '', ( 8.28772138295504, -0.345416684478506, 4.50000000000000 ) );
#253 = CARTESIAN_POINT( '', ( 8.29688968370592, -0.271219692725179, 4.50000000000000 ) );
#254 = CARTESIAN_POINT( '', ( 8.30868291312134, -0.120311469597519, 4.50000000000000 ) );
#255 = CARTESIAN_POINT( '', ( 8.31118642945158, -0.0402778790718484, 4.50000000000000 ) );
#256 = CARTESIAN_POINT( '', ( 8.30277319267651, 0.611511118757683, 4.50000000000000 ) );
#257 = CARTESIAN_POINT( '', ( 8.08943310012976, 1.14771992171218, 4.50000000000000 ) );
#258 = CARTESIAN_POINT( '', ( 7.72568602511213, 1.93168480989714, 4.50000000000000 ) );
#259 = CARTESIAN_POINT( '', ( 7.59594535269379, 2.18980182714454, 4.50000000000000 ) );
#260 = CARTESIAN_POINT( '', ( 7.33987825652146, 2.70732434457003, 4.50000000000000 ) );
#261 = CARTESIAN_POINT( '', ( 7.21331718679457, 2.96664129310455, 4.50000000000000 ) );
#262 = CARTESIAN_POINT( '', ( 7.09404283797202, 3.22870813376153, 4.50000000000000 ) );
#263 = COLOUR_RGB( '', 0.689999997600000, 0.689999997600000, 0.689999997600000 );
#264 = CARTESIAN_POINT( '', ( 74.2330000000000, 3.99999999999999, 0.000000000000000 ) );
#265 = AXIS2_PLACEMENT_3D( '', #309, #310, #311 );
#266 = CARTESIAN_POINT( '', ( 10.2469507659596, 4.00000000000000, 0.000000000000000 ) );
#267 = AXIS2_PLACEMENT_3D( '', #312, #313, #314 );
#268 = COLOUR_RGB( '', 0.689999997600000, 0.689999997600000, 0.689999997600000 );
#269 = CARTESIAN_POINT( '', ( 7.09404283797201, -3.22870813376152, -4.50000000000000 ) );
#270 = AXIS2_PLACEMENT_3D( '', #315, #316, #317 );
#271 = CARTESIAN_POINT( '', ( 7.09404283797203, 3.22870813376151, -4.50000000000000 ) );
#272 = AXIS2_PLACEMENT_3D( '', #318, #319, #320 );
#273 = AXIS2_PLACEMENT_3D( '', #321, #322, #323 );
#274 = COLOUR_RGB( '', 0.689999997600000, 0.689999997600000, 0.689999997600000 );
#275 = CARTESIAN_POINT( '', ( 0.000000000000000, 4.00000000000000, -4.50000000000000 ) );
#276 = AXIS2_PLACEMENT_3D( '', #324, #325, #326 );
#277 = COLOUR_RGB( '', 0.689999997600000, 0.689999997600000, 0.689999997600000 );
#278 = CARTESIAN_POINT( '', ( 75.0000000000000, 3.23299999999999, 0.000000000000000 ) );
#279 = AXIS2_PLACEMENT_3D( '', #327, #328, #329 );
#280 = COLOUR_RGB( '', 0.689999997600000, 0.689999997600000, 0.689999997600000 );
#281 = CARTESIAN_POINT( '', ( 7.09404283797191, 3.22870813376146, -4.50000000000000 ) );
#282 = CARTESIAN_POINT( '', ( 7.21447247429766, 2.96410292212191, -4.50000000000000 ) );
#283 = CARTESIAN_POINT( '', ( 7.34231483127093, 2.70234599049847, -4.50000000000000 ) );
#284 = CARTESIAN_POINT( '', ( 7.60085724960473, 2.17993017784398, -4.50000000000000 ) );
#285 = CARTESIAN_POINT( '', ( 7.73180626427188, 1.91936695517668, -4.50000000000000 ) );
#286 = CARTESIAN_POINT( '', ( 7.97593504333407, 1.39141281420132, -4.50000000000000 ) );
#287 = CARTESIAN_POINT( '', ( 8.08952956538405, 1.12418126328294, -4.50000000000000 ) );
#288 = CARTESIAN_POINT( '', ( 8.21682142360369, 0.706773127386306, -4.50000000000000 ) );
#289 = CARTESIAN_POINT( '', ( 8.25184837268528, 0.564792279587080, -4.50000000000000 ) );
#290 = CARTESIAN_POINT( '', ( 8.28772138295504, 0.345416684478514, -4.50000000000000 ) );
#291 = CARTESIAN_POINT( '', ( 8.29688968370592, 0.271219692725188, -4.50000000000000 ) );
#292 = CARTESIAN_POINT( '', ( 8.30868291312134, 0.120311469597528, -4.50000000000000 ) );
#293 = CARTESIAN_POINT( '', ( 8.31118642945158, 0.0402778790718502, -4.50000000000000 ) );
#294 = CARTESIAN_POINT( '', ( 8.30277319267651, -0.611511118757680, -4.50000000000000 ) );
#295 = CARTESIAN_POINT( '', ( 8.08943310012976, -1.14771992171218, -4.50000000000000 ) );
#296 = CARTESIAN_POINT( '', ( 7.72568602511213, -1.93168480989714, -4.50000000000000 ) );
#297 = CARTESIAN_POINT( '', ( 7.59594535269380, -2.18980182714452, -4.50000000000000 ) );
#298 = CARTESIAN_POINT( '', ( 7.33987825652146, -2.70732434457001, -4.50000000000000 ) );
#299 = CARTESIAN_POINT( '', ( 7.21331718679457, -2.96664129310454, -4.50000000000000 ) );
#300 = CARTESIAN_POINT( '', ( 7.09404283797202, -3.22870813376152, -4.50000000000000 ) );
#301 = COLOUR_RGB( '', 0.689999997600000, 0.689999997600000, 0.689999997600000 );
#302 = COLOUR_RGB( '', 0.689999997600000, 0.689999997600000, 0.689999997600000 );
#303 = CARTESIAN_POINT( '', ( 0.000000000000000, 0.000000000000000, 4.50000000000000 ) );
#304 = DIRECTION( '', ( 0.000000000000000, 0.000000000000000, 1.00000000000000 ) );
#305 = DIRECTION( '', ( 1.00000000000000, 0.000000000000000, -0.000000000000000 ) );
#306 = CARTESIAN_POINT( '', ( -3.46944695195361E-15, 6.07153216591882E-15, 4.50000000000000 ) );
#307 = DIRECTION( '', ( 0.000000000000000, 0.000000000000000, 1.00000000000000 ) );
#308 = DIRECTION( '', ( 1.00000000000000, 0.000000000000000, -0.000000000000000 ) );
#309 = CARTESIAN_POINT( '', ( 74.2330000000000, 1.00639724458499E-17, 0.000000000000000 ) );
#310 = DIRECTION( '', ( 1.00000000000000, -1.31212157051502E-17, -0.000000000000000 ) );
#311 = DIRECTION( '', ( 1.31212157051502E-17, 1.00000000000000, 0.000000000000000 ) );
#312 = CARTESIAN_POINT( '', ( 10.2469507659596, 8.49638726566056E-16, 0.000000000000000 ) );
#313 = DIRECTION( '', ( 1.00000000000000, -1.31212157051502E-17, -0.000000000000000 ) );
#314 = DIRECTION( '', ( 1.31212157051502E-17, 1.00000000000000, 0.000000000000000 ) );
#315 = CARTESIAN_POINT( '', ( 7.09404283797203, 8.91008711587659E-16, 0.000000000000000 ) );
#316 = DIRECTION( '', ( 1.00000000000000, -1.31212157051502E-17, -0.000000000000000 ) );
#317 = DIRECTION( '', ( 1.31212157051502E-17, 1.00000000000000, 0.000000000000000 ) );
#318 = CARTESIAN_POINT( '', ( 7.09404283797203, 8.91008711587659E-16, 0.000000000000000 ) );
#319 = DIRECTION( '', ( 1.00000000000000, -1.31212157051502E-17, -0.000000000000000 ) );
#320 = DIRECTION( '', ( 1.31212157051502E-17, 1.00000000000000, 0.000000000000000 ) );
#321 = CARTESIAN_POINT( '', ( -3.46944695195361E-15, 6.07153216591882E-15, -4.50000000000000 ) );
#322 = DIRECTION( '', ( -0.000000000000000, 0.000000000000000, -1.00000000000000 ) );
#323 = DIRECTION( '', ( -1.00000000000000, 0.000000000000000, 0.000000000000000 ) );
#324 = CARTESIAN_POINT( '', ( 0.000000000000000, 0.000000000000000, -4.50000000000000 ) );
#325 = DIRECTION( '', ( 0.000000000000000, 0.000000000000000, -1.00000000000000 ) );
#326 = DIRECTION( '', ( 0.000000000000000, 1.00000000000000, 0.000000000000000 ) );
#327 = CARTESIAN_POINT( '', ( 75.0000000000000, -4.81482486096809E-32, 0.000000000000000 ) );
#328 = DIRECTION( '', ( 1.00000000000000, -1.31212157051502E-17, -0.000000000000000 ) );
#329 = DIRECTION( '', ( 1.31212157051502E-17, 1.00000000000000, 0.000000000000000 ) );
ENDSEC;
END-ISO-10303-21;
