ISO-10303-21;
HEADER;
FILE_DESCRIPTION( ( 'STEP AP214' ), '1' );
FILE_NAME( '//goodhand-server/Shared Folders/GoodHand Data/Kipp CAD/K0368/K0368.22108_0.stp', '2020-12-03T11:52:33', ( '' ), ( '' ), ' ', 'PARTsolutions', ' ' );
FILE_SCHEMA( ( 'AUTOMOTIVE_DESIGN { 1 0 10303 214 1 1 1 1 }' ) );
ENDSEC;
DATA;
#1 = MECHANICAL_DESIGN_GEOMETRIC_PRESENTATION_REPRESENTATION( ' ', ( #10, #11, #12, #13, #14, #15, #16, #17, #18, #19, #20, #21, #22, #23 ), #6 );
#2 = PRODUCT_DEFINITION_CONTEXT( '', #24, 'design' );
#3 = APPLICATION_PROTOCOL_DEFINITION( 'international standard', 'automotive_design', 2001, #24 );
#4 = PRODUCT_CATEGORY_RELATIONSHIP( 'NONE', 'NONE', #25, #26 );
#5 = SHAPE_DEFINITION_REPRESENTATION( #27, #28 );
#6 =  ( GEOMETRIC_REPRESENTATION_CONTEXT( 3 )GLOBAL_UNCERTAINTY_ASSIGNED_CONTEXT( ( #31 ) )GLOBAL_UNIT_ASSIGNED_CONTEXT( ( #33, #34, #35 ) )REPRESENTATION_CONTEXT( 'NONE', 'WORKSPACE' ) );
#10 = STYLED_ITEM( '', ( #37 ), #38 );
#11 = STYLED_ITEM( '', ( #39 ), #40 );
#12 = STYLED_ITEM( '', ( #41 ), #42 );
#13 = STYLED_ITEM( '', ( #43 ), #44 );
#14 = STYLED_ITEM( '', ( #45 ), #46 );
#15 = STYLED_ITEM( '', ( #47 ), #48 );
#16 = STYLED_ITEM( '', ( #49 ), #50 );
#17 = STYLED_ITEM( '', ( #51 ), #52 );
#18 = STYLED_ITEM( '', ( #53 ), #54 );
#19 = STYLED_ITEM( '', ( #55 ), #56 );
#20 = STYLED_ITEM( '', ( #57 ), #58 );
#21 = STYLED_ITEM( '', ( #59 ), #60 );
#22 = STYLED_ITEM( '', ( #61 ), #62 );
#23 = STYLED_ITEM( '', ( #63 ), #64 );
#24 = APPLICATION_CONTEXT( 'core data for automotive mechanical design processes' );
#25 = PRODUCT_CATEGORY( 'part', 'NONE' );
#26 = PRODUCT_RELATED_PRODUCT_CATEGORY( 'detail', ' ', ( #65 ) );
#27 = PRODUCT_DEFINITION_SHAPE( 'NONE', 'NONE', #66 );
#28 = ADVANCED_BREP_SHAPE_REPRESENTATION( '_K0368.22108_0', ( #67, #68 ), #6 );
#31 = UNCERTAINTY_MEASURE_WITH_UNIT( LENGTH_MEASURE( 0.00100000000000000 ), #33, '', '' );
#33 =  ( CONVERSION_BASED_UNIT( 'MILLIMETRE', #71 )LENGTH_UNIT(  )NAMED_UNIT( #74 ) );
#34 =  ( NAMED_UNIT( #76 )PLANE_ANGLE_UNIT(  )SI_UNIT( $, .RADIAN. ) );
#35 =  ( NAMED_UNIT( #76 )SI_UNIT( $, .STERADIAN. )SOLID_ANGLE_UNIT(  ) );
#37 = PRESENTATION_STYLE_ASSIGNMENT( ( #82 ) );
#38 = ADVANCED_FACE( '', ( #83, #84 ), #85, .F. );
#39 = PRESENTATION_STYLE_ASSIGNMENT( ( #86 ) );
#40 = ADVANCED_FACE( '', ( #87 ), #88, .F. );
#41 = PRESENTATION_STYLE_ASSIGNMENT( ( #89 ) );
#42 = ADVANCED_FACE( '', ( #90, #91 ), #92, .F. );
#43 = PRESENTATION_STYLE_ASSIGNMENT( ( #93 ) );
#44 = ADVANCED_FACE( '', ( #94, #95 ), #96, .T. );
#45 = PRESENTATION_STYLE_ASSIGNMENT( ( #97 ) );
#46 = ADVANCED_FACE( '', ( #98 ), #99, .F. );
#47 = PRESENTATION_STYLE_ASSIGNMENT( ( #100 ) );
#48 = ADVANCED_FACE( '', ( #101, #102 ), #103, .F. );
#49 = PRESENTATION_STYLE_ASSIGNMENT( ( #104 ) );
#50 = ADVANCED_FACE( '', ( #105, #106 ), #107, .T. );
#51 = PRESENTATION_STYLE_ASSIGNMENT( ( #108 ) );
#52 = ADVANCED_FACE( '', ( #109 ), #110, .F. );
#53 = PRESENTATION_STYLE_ASSIGNMENT( ( #111 ) );
#54 = ADVANCED_FACE( '', ( #112, #113 ), #114, .T. );
#55 = PRESENTATION_STYLE_ASSIGNMENT( ( #115 ) );
#56 = ADVANCED_FACE( '', ( #116, #117 ), #118, .F. );
#57 = PRESENTATION_STYLE_ASSIGNMENT( ( #119 ) );
#58 = ADVANCED_FACE( '', ( #120, #121 ), #122, .T. );
#59 = PRESENTATION_STYLE_ASSIGNMENT( ( #123 ) );
#60 = ADVANCED_FACE( '', ( #124, #125 ), #126, .F. );
#61 = PRESENTATION_STYLE_ASSIGNMENT( ( #127 ) );
#62 = ADVANCED_FACE( '', ( #128, #129 ), #130, .T. );
#63 = PRESENTATION_STYLE_ASSIGNMENT( ( #131 ) );
#64 = ADVANCED_FACE( '', ( #132, #133 ), #134, .F. );
#65 = PRODUCT( '_K0368.22108_0', '_K0368.22108_0', 'PART-_K0368.22108_0-DESC', ( #135 ) );
#66 = PRODUCT_DEFINITION( 'NONE', 'NONE', #136, #2 );
#67 = BREP_WITH_VOIDS( '_K0368.22108_0', #137, ( #138 ) );
#68 = AXIS2_PLACEMENT_3D( '', #139, #140, #141 );
#71 = LENGTH_MEASURE_WITH_UNIT( LENGTH_MEASURE( 1.00000000000000 ), #142 );
#74 = DIMENSIONAL_EXPONENTS( 1.00000000000000, 0.000000000000000, 0.000000000000000, 0.000000000000000, 0.000000000000000, 0.000000000000000, 0.000000000000000 );
#76 = DIMENSIONAL_EXPONENTS( 0.000000000000000, 0.000000000000000, 0.000000000000000, 0.000000000000000, 0.000000000000000, 0.000000000000000, 0.000000000000000 );
#82 = SURFACE_STYLE_USAGE( .BOTH., #143 );
#83 = FACE_OUTER_BOUND( '', #144, .T. );
#84 = FACE_OUTER_BOUND( '', #145, .T. );
#85 = CYLINDRICAL_SURFACE( '', #146, 5.60000000000000 );
#86 = SURFACE_STYLE_USAGE( .BOTH., #147 );
#87 = FACE_OUTER_BOUND( '', #148, .T. );
#88 = PLANE( '', #149 );
#89 = SURFACE_STYLE_USAGE( .BOTH., #150 );
#90 = FACE_OUTER_BOUND( '', #151, .T. );
#91 = FACE_BOUND( '', #152, .T. );
#92 = PLANE( '', #153 );
#93 = SURFACE_STYLE_USAGE( .BOTH., #154 );
#94 = FACE_BOUND( '', #155, .T. );
#95 = FACE_OUTER_BOUND( '', #156, .T. );
#96 = CONICAL_SURFACE( '', #157, 4.95855508770000, 0.128844550000000 );
#97 = SURFACE_STYLE_USAGE( .BOTH., #158 );
#98 = FACE_OUTER_BOUND( '', #159, .T. );
#99 = PLANE( '', #160 );
#100 = SURFACE_STYLE_USAGE( .BOTH., #161 );
#101 = FACE_OUTER_BOUND( '', #162, .T. );
#102 = FACE_OUTER_BOUND( '', #163, .T. );
#103 = CYLINDRICAL_SURFACE( '', #164, 5.60000000000000 );
#104 = SURFACE_STYLE_USAGE( .BOTH., #165 );
#105 = FACE_BOUND( '', #166, .T. );
#106 = FACE_OUTER_BOUND( '', #167, .T. );
#107 = SPHERICAL_SURFACE( '', #168, 5.00000000000000 );
#108 = SURFACE_STYLE_USAGE( .BOTH., #169 );
#109 = FACE_OUTER_BOUND( '', #170, .T. );
#110 = PLANE( '', #171 );
#111 = SURFACE_STYLE_USAGE( .BOTH., #172 );
#112 = FACE_OUTER_BOUND( '', #173, .T. );
#113 = FACE_OUTER_BOUND( '', #174, .T. );
#114 = TOROIDAL_SURFACE( '', #175, 7.54285714290000, 0.457142857100000 );
#115 = SURFACE_STYLE_USAGE( .BOTH., #176 );
#116 = FACE_OUTER_BOUND( '', #177, .T. );
#117 = FACE_BOUND( '', #178, .T. );
#118 = PLANE( '', #179 );
#119 = SURFACE_STYLE_USAGE( .BOTH., #180 );
#120 = FACE_OUTER_BOUND( '', #181, .T. );
#121 = FACE_OUTER_BOUND( '', #182, .T. );
#122 = TOROIDAL_SURFACE( '', #183, 7.54285714290000, 0.457142857100000 );
#123 = SURFACE_STYLE_USAGE( .BOTH., #184 );
#124 = FACE_OUTER_BOUND( '', #185, .T. );
#125 = FACE_OUTER_BOUND( '', #186, .T. );
#126 = CYLINDRICAL_SURFACE( '', #187, 5.60000000000000 );
#127 = SURFACE_STYLE_USAGE( .BOTH., #188 );
#128 = FACE_OUTER_BOUND( '', #189, .T. );
#129 = FACE_OUTER_BOUND( '', #190, .T. );
#130 = CYLINDRICAL_SURFACE( '', #191, 8.00000000000000 );
#131 = SURFACE_STYLE_USAGE( .BOTH., #192 );
#132 = FACE_BOUND( '', #193, .T. );
#133 = FACE_OUTER_BOUND( '', #194, .T. );
#134 = PLANE( '', #195 );
#135 = PRODUCT_CONTEXT( '', #24, 'mechanical' );
#136 = PRODUCT_DEFINITION_FORMATION_WITH_SPECIFIED_SOURCE( ' ', 'NONE', #65, .NOT_KNOWN. );
#137 = CLOSED_SHELL( '', ( #44, #50, #42, #48, #56, #58, #62, #54, #64, #38, #40 ) );
#138 = ORIENTED_CLOSED_SHELL( '', *, #196, .T. );
#139 = CARTESIAN_POINT( '', ( 0.000000000000000, 0.000000000000000, 0.000000000000000 ) );
#140 = DIRECTION( '', ( 0.000000000000000, 0.000000000000000, 1.00000000000000 ) );
#141 = DIRECTION( '', ( 1.00000000000000, 0.000000000000000, 0.000000000000000 ) );
#142 =  ( LENGTH_UNIT(  )NAMED_UNIT( #74 )SI_UNIT( .MILLI., .METRE. ) );
#143 = SURFACE_SIDE_STYLE( '', ( #198 ) );
#144 = EDGE_LOOP( '', ( #199 ) );
#145 = EDGE_LOOP( '', ( #200 ) );
#146 = AXIS2_PLACEMENT_3D( '', #201, #202, #203 );
#147 = SURFACE_SIDE_STYLE( '', ( #204 ) );
#148 = EDGE_LOOP( '', ( #205 ) );
#149 = AXIS2_PLACEMENT_3D( '', #206, #207, #208 );
#150 = SURFACE_SIDE_STYLE( '', ( #209 ) );
#151 = EDGE_LOOP( '', ( #210 ) );
#152 = EDGE_LOOP( '', ( #211 ) );
#153 = AXIS2_PLACEMENT_3D( '', #212, #213, #214 );
#154 = SURFACE_SIDE_STYLE( '', ( #215 ) );
#155 = EDGE_LOOP( '', ( #216 ) );
#156 = EDGE_LOOP( '', ( #217 ) );
#157 = AXIS2_PLACEMENT_3D( '', #218, #219, #220 );
#158 = SURFACE_SIDE_STYLE( '', ( #221 ) );
#159 = EDGE_LOOP( '', ( #222 ) );
#160 = AXIS2_PLACEMENT_3D( '', #223, #224, #225 );
#161 = SURFACE_SIDE_STYLE( '', ( #226 ) );
#162 = EDGE_LOOP( '', ( #227 ) );
#163 = EDGE_LOOP( '', ( #228 ) );
#164 = AXIS2_PLACEMENT_3D( '', #229, #230, #231 );
#165 = SURFACE_SIDE_STYLE( '', ( #232 ) );
#166 = VERTEX_LOOP( '', #233 );
#167 = EDGE_LOOP( '', ( #234 ) );
#168 = AXIS2_PLACEMENT_3D( '', #235, #236, #237 );
#169 = SURFACE_SIDE_STYLE( '', ( #238 ) );
#170 = EDGE_LOOP( '', ( #239 ) );
#171 = AXIS2_PLACEMENT_3D( '', #240, #241, #242 );
#172 = SURFACE_SIDE_STYLE( '', ( #243 ) );
#173 = EDGE_LOOP( '', ( #244 ) );
#174 = EDGE_LOOP( '', ( #245 ) );
#175 = AXIS2_PLACEMENT_3D( '', #246, #247, #248 );
#176 = SURFACE_SIDE_STYLE( '', ( #249 ) );
#177 = EDGE_LOOP( '', ( #250 ) );
#178 = EDGE_LOOP( '', ( #251 ) );
#179 = AXIS2_PLACEMENT_3D( '', #252, #253, #254 );
#180 = SURFACE_SIDE_STYLE( '', ( #255 ) );
#181 = EDGE_LOOP( '', ( #256 ) );
#182 = EDGE_LOOP( '', ( #257 ) );
#183 = AXIS2_PLACEMENT_3D( '', #258, #259, #260 );
#184 = SURFACE_SIDE_STYLE( '', ( #261 ) );
#185 = EDGE_LOOP( '', ( #262 ) );
#186 = EDGE_LOOP( '', ( #263 ) );
#187 = AXIS2_PLACEMENT_3D( '', #264, #265, #266 );
#188 = SURFACE_SIDE_STYLE( '', ( #267 ) );
#189 = EDGE_LOOP( '', ( #268 ) );
#190 = EDGE_LOOP( '', ( #269 ) );
#191 = AXIS2_PLACEMENT_3D( '', #270, #271, #272 );
#192 = SURFACE_SIDE_STYLE( '', ( #273 ) );
#193 = EDGE_LOOP( '', ( #274 ) );
#194 = EDGE_LOOP( '', ( #275 ) );
#195 = AXIS2_PLACEMENT_3D( '', #276, #277, #278 );
#196 = CLOSED_SHELL( '', ( #60, #52, #46 ) );
#198 = SURFACE_STYLE_FILL_AREA( #279 );
#199 = ORIENTED_EDGE( '', *, *, #280, .F. );
#200 = ORIENTED_EDGE( '', *, *, #281, .T. );
#201 = CARTESIAN_POINT( '', ( 0.000000000000000, 0.899999999999999, 0.000000000000000 ) );
#202 = DIRECTION( '', ( -0.000000000000000, 1.00000000000000, 0.000000000000000 ) );
#203 = DIRECTION( '', ( 0.000000000000000, 0.000000000000000, -1.00000000000000 ) );
#204 = SURFACE_STYLE_FILL_AREA( #282 );
#205 = ORIENTED_EDGE( '', *, *, #280, .T. );
#206 = CARTESIAN_POINT( '', ( -5.60000000000000, 0.899999999999999, 6.85802207522518E-16 ) );
#207 = DIRECTION( '', ( 0.000000000000000, 1.00000000000000, 0.000000000000000 ) );
#208 = DIRECTION( '', ( 0.000000000000000, -0.000000000000000, 1.00000000000000 ) );
#209 = SURFACE_STYLE_FILL_AREA( #283 );
#210 = ORIENTED_EDGE( '', *, *, #284, .T. );
#211 = ORIENTED_EDGE( '', *, *, #285, .T. );
#212 = CARTESIAN_POINT( '', ( 3.50000000000000, 17.1000000000000, 0.000000000000000 ) );
#213 = DIRECTION( '', ( 0.000000000000000, -1.00000000000000, -0.000000000000000 ) );
#214 = DIRECTION( '', ( 0.000000000000000, 0.000000000000000, -1.00000000000000 ) );
#215 = SURFACE_STYLE_FILL_AREA( #286 );
#216 = ORIENTED_EDGE( '', *, *, #285, .F. );
#217 = ORIENTED_EDGE( '', *, *, #287, .T. );
#218 = CARTESIAN_POINT( '', ( 0.000000000000000, 28.3575582190826, 0.000000000000000 ) );
#219 = DIRECTION( '', ( -0.000000000000000, 1.00000000000000, 0.000000000000000 ) );
#220 = DIRECTION( '', ( 0.000000000000000, -0.000000000000000, 1.00000000000000 ) );
#221 = SURFACE_STYLE_FILL_AREA( #288 );
#222 = ORIENTED_EDGE( '', *, *, #289, .T. );
#223 = CARTESIAN_POINT( '', ( 6.40000000000000, 16.2000000000000, 0.000000000000000 ) );
#224 = DIRECTION( '', ( 0.000000000000000, 1.00000000000000, 0.000000000000000 ) );
#225 = DIRECTION( '', ( 0.000000000000000, -0.000000000000000, 1.00000000000000 ) );
#226 = SURFACE_STYLE_FILL_AREA( #290 );
#227 = ORIENTED_EDGE( '', *, *, #291, .F. );
#228 = ORIENTED_EDGE( '', *, *, #284, .F. );
#229 = CARTESIAN_POINT( '', ( 0.000000000000000, 0.899999999999999, 0.000000000000000 ) );
#230 = DIRECTION( '', ( -0.000000000000000, 1.00000000000000, 0.000000000000000 ) );
#231 = DIRECTION( '', ( 0.000000000000000, 0.000000000000000, -1.00000000000000 ) );
#232 = SURFACE_STYLE_FILL_AREA( #292 );
#233 = VERTEX_POINT( '', #293 );
#234 = ORIENTED_EDGE( '', *, *, #287, .F. );
#235 = CARTESIAN_POINT( '', ( -5.85469173142172E-15, 29.0000000000000, 0.000000000000000 ) );
#236 = DIRECTION( '', ( 0.000000000000000, -1.00000000000000, 0.000000000000000 ) );
#237 = DIRECTION( '', ( 1.00000000000000, 0.000000000000000, 0.000000000000000 ) );
#238 = SURFACE_STYLE_FILL_AREA( #294 );
#239 = ORIENTED_EDGE( '', *, *, #295, .F. );
#240 = CARTESIAN_POINT( '', ( 0.000000000000000, 9.00000000000000, 0.000000000000000 ) );
#241 = DIRECTION( '', ( 0.000000000000000, -1.00000000000000, -0.000000000000000 ) );
#242 = DIRECTION( '', ( 0.000000000000000, 0.000000000000000, -1.00000000000000 ) );
#243 = SURFACE_STYLE_FILL_AREA( #296 );
#244 = ORIENTED_EDGE( '', *, *, #297, .T. );
#245 = ORIENTED_EDGE( '', *, *, #298, .F. );
#246 = CARTESIAN_POINT( '', ( 0.000000000000000, 0.457142857142858, 0.000000000000000 ) );
#247 = DIRECTION( '', ( 0.000000000000000, -1.00000000000000, -0.000000000000000 ) );
#248 = DIRECTION( '', ( 0.000000000000000, 0.000000000000000, -1.00000000000000 ) );
#249 = SURFACE_STYLE_FILL_AREA( #299 );
#250 = ORIENTED_EDGE( '', *, *, #300, .F. );
#251 = ORIENTED_EDGE( '', *, *, #291, .T. );
#252 = CARTESIAN_POINT( '', ( -5.60000000000000, 18.0000000000000, 6.85802207522518E-16 ) );
#253 = DIRECTION( '', ( 0.000000000000000, -1.00000000000000, -0.000000000000000 ) );
#254 = DIRECTION( '', ( 0.000000000000000, 0.000000000000000, -1.00000000000000 ) );
#255 = SURFACE_STYLE_FILL_AREA( #301 );
#256 = ORIENTED_EDGE( '', *, *, #300, .T. );
#257 = ORIENTED_EDGE( '', *, *, #302, .F. );
#258 = CARTESIAN_POINT( '', ( 0.000000000000000, 17.5428571428571, 0.000000000000000 ) );
#259 = DIRECTION( '', ( 0.000000000000000, -1.00000000000000, -0.000000000000000 ) );
#260 = DIRECTION( '', ( 0.000000000000000, 0.000000000000000, -1.00000000000000 ) );
#261 = SURFACE_STYLE_FILL_AREA( #303 );
#262 = ORIENTED_EDGE( '', *, *, #289, .F. );
#263 = ORIENTED_EDGE( '', *, *, #295, .T. );
#264 = CARTESIAN_POINT( '', ( 0.000000000000000, 0.899999999999999, 0.000000000000000 ) );
#265 = DIRECTION( '', ( -0.000000000000000, 1.00000000000000, 0.000000000000000 ) );
#266 = DIRECTION( '', ( 0.000000000000000, 0.000000000000000, -1.00000000000000 ) );
#267 = SURFACE_STYLE_FILL_AREA( #304 );
#268 = ORIENTED_EDGE( '', *, *, #297, .F. );
#269 = ORIENTED_EDGE( '', *, *, #302, .T. );
#270 = CARTESIAN_POINT( '', ( 0.000000000000000, 0.899999999999999, 0.000000000000000 ) );
#271 = DIRECTION( '', ( -0.000000000000000, 1.00000000000000, 0.000000000000000 ) );
#272 = DIRECTION( '', ( 0.000000000000000, 0.000000000000000, -1.00000000000000 ) );
#273 = SURFACE_STYLE_FILL_AREA( #305 );
#274 = ORIENTED_EDGE( '', *, *, #281, .F. );
#275 = ORIENTED_EDGE( '', *, *, #298, .T. );
#276 = CARTESIAN_POINT( '', ( -7.54285714285714, 5.42101086242752E-16, 9.23733585642575E-16 ) );
#277 = DIRECTION( '', ( 0.000000000000000, 1.00000000000000, 0.000000000000000 ) );
#278 = DIRECTION( '', ( 0.000000000000000, -0.000000000000000, 1.00000000000000 ) );
#279 = FILL_AREA_STYLE( '', ( #306 ) );
#280 = EDGE_CURVE( '', #307, #307, #308, .T. );
#281 = EDGE_CURVE( '', #309, #309, #310, .T. );
#282 = FILL_AREA_STYLE( '', ( #311 ) );
#283 = FILL_AREA_STYLE( '', ( #312 ) );
#284 = EDGE_CURVE( '', #313, #313, #314, .F. );
#285 = EDGE_CURVE( '', #315, #315, #316, .T. );
#286 = FILL_AREA_STYLE( '', ( #317 ) );
#287 = EDGE_CURVE( '', #318, #318, #319, .T. );
#288 = FILL_AREA_STYLE( '', ( #320 ) );
#289 = EDGE_CURVE( '', #321, #321, #322, .F. );
#290 = FILL_AREA_STYLE( '', ( #323 ) );
#291 = EDGE_CURVE( '', #324, #324, #325, .T. );
#292 = FILL_AREA_STYLE( '', ( #326 ) );
#293 = CARTESIAN_POINT( '', ( -5.54853003163489E-15, 34.0000000000000, 0.000000000000000 ) );
#294 = FILL_AREA_STYLE( '', ( #327 ) );
#295 = EDGE_CURVE( '', #328, #328, #329, .T. );
#296 = FILL_AREA_STYLE( '', ( #330 ) );
#297 = EDGE_CURVE( '', #331, #331, #332, .T. );
#298 = EDGE_CURVE( '', #333, #333, #334, .T. );
#299 = FILL_AREA_STYLE( '', ( #335 ) );
#300 = EDGE_CURVE( '', #336, #336, #337, .T. );
#301 = FILL_AREA_STYLE( '', ( #338 ) );
#302 = EDGE_CURVE( '', #339, #339, #340, .T. );
#303 = FILL_AREA_STYLE( '', ( #341 ) );
#304 = FILL_AREA_STYLE( '', ( #342 ) );
#305 = FILL_AREA_STYLE( '', ( #343 ) );
#306 = FILL_AREA_STYLE_COLOUR( '', #344 );
#307 = VERTEX_POINT( '', #345 );
#308 = CIRCLE( '', #346, 5.60000000000000 );
#309 = VERTEX_POINT( '', #347 );
#310 = CIRCLE( '', #348, 5.60000000000000 );
#311 = FILL_AREA_STYLE_COLOUR( '', #349 );
#312 = FILL_AREA_STYLE_COLOUR( '', #350 );
#313 = VERTEX_POINT( '', #351 );
#314 = CIRCLE( '', #352, 5.60000000000000 );
#315 = VERTEX_POINT( '', #353 );
#316 = CIRCLE( '', #354, 3.50000000000000 );
#317 = FILL_AREA_STYLE_COLOUR( '', #355 );
#318 = VERTEX_POINT( '', #356 );
#319 = CIRCLE( '', #357, 4.95855508770000 );
#320 = FILL_AREA_STYLE_COLOUR( '', #358 );
#321 = VERTEX_POINT( '', #359 );
#322 = CIRCLE( '', #360, 5.60000000000000 );
#323 = FILL_AREA_STYLE_COLOUR( '', #361 );
#324 = VERTEX_POINT( '', #362 );
#325 = CIRCLE( '', #363, 5.60000000000000 );
#326 = FILL_AREA_STYLE_COLOUR( '', #364 );
#327 = FILL_AREA_STYLE_COLOUR( '', #365 );
#328 = VERTEX_POINT( '', #366 );
#329 = CIRCLE( '', #367, 5.60000000000000 );
#330 = FILL_AREA_STYLE_COLOUR( '', #368 );
#331 = VERTEX_POINT( '', #369 );
#332 = CIRCLE( '', #370, 8.00000000000000 );
#333 = VERTEX_POINT( '', #371 );
#334 = CIRCLE( '', #372, 7.54285714290000 );
#335 = FILL_AREA_STYLE_COLOUR( '', #373 );
#336 = VERTEX_POINT( '', #374 );
#337 = CIRCLE( '', #375, 7.54285714290000 );
#338 = FILL_AREA_STYLE_COLOUR( '', #376 );
#339 = VERTEX_POINT( '', #377 );
#340 = CIRCLE( '', #378, 8.00000000000000 );
#341 = FILL_AREA_STYLE_COLOUR( '', #379 );
#342 = FILL_AREA_STYLE_COLOUR( '', #380 );
#343 = FILL_AREA_STYLE_COLOUR( '', #381 );
#344 = COLOUR_RGB( '', 0.689999997600000, 0.689999997600000, 0.689999997600000 );
#345 = CARTESIAN_POINT( '', ( 0.000000000000000, 0.900000000000000, -5.60000000000000 ) );
#346 = AXIS2_PLACEMENT_3D( '', #382, #383, #384 );
#347 = CARTESIAN_POINT( '', ( 0.000000000000000, 0.000000000000000, -5.60000000000000 ) );
#348 = AXIS2_PLACEMENT_3D( '', #385, #386, #387 );
#349 = COLOUR_RGB( '', 0.689999997600000, 0.689999997600000, 0.689999997600000 );
#350 = COLOUR_RGB( '', 0.689999997600000, 0.689999997600000, 0.689999997600000 );
#351 = CARTESIAN_POINT( '', ( 0.000000000000000, 17.1000000000000, -5.60000000000000 ) );
#352 = AXIS2_PLACEMENT_3D( '', #388, #389, #390 );
#353 = CARTESIAN_POINT( '', ( 0.000000000000000, 17.1000000000000, -3.50000000000000 ) );
#354 = AXIS2_PLACEMENT_3D( '', #391, #392, #393 );
#355 = COLOUR_RGB( '', 0.689999997600000, 0.689999997600000, 0.689999997600000 );
#356 = CARTESIAN_POINT( '', ( 0.000000000000000, 28.3575582190826, -4.95855508773792 ) );
#357 = AXIS2_PLACEMENT_3D( '', #394, #395, #396 );
#358 = COLOUR_RGB( '', 0.689999997600000, 0.689999997600000, 0.689999997600000 );
#359 = CARTESIAN_POINT( '', ( 0.000000000000000, 16.2000000000000, 5.60000000000000 ) );
#360 = AXIS2_PLACEMENT_3D( '', #397, #398, #399 );
#361 = COLOUR_RGB( '', 0.689999997600000, 0.689999997600000, 0.689999997600000 );
#362 = CARTESIAN_POINT( '', ( 0.000000000000000, 18.0000000000000, -5.60000000000000 ) );
#363 = AXIS2_PLACEMENT_3D( '', #400, #401, #402 );
#364 = COLOUR_RGB( '', 0.689999997600000, 0.689999997600000, 0.689999997600000 );
#365 = COLOUR_RGB( '', 0.689999997600000, 0.689999997600000, 0.689999997600000 );
#366 = CARTESIAN_POINT( '', ( 0.000000000000000, 9.00000000000000, -5.60000000000000 ) );
#367 = AXIS2_PLACEMENT_3D( '', #403, #404, #405 );
#368 = COLOUR_RGB( '', 0.689999997600000, 0.689999997600000, 0.689999997600000 );
#369 = CARTESIAN_POINT( '', ( 0.000000000000000, 0.457142857142854, -8.00000000000000 ) );
#370 = AXIS2_PLACEMENT_3D( '', #406, #407, #408 );
#371 = CARTESIAN_POINT( '', ( 0.000000000000000, 1.08420217248550E-15, -7.54285714285714 ) );
#372 = AXIS2_PLACEMENT_3D( '', #409, #410, #411 );
#373 = COLOUR_RGB( '', 0.689999997600000, 0.689999997600000, 0.689999997600000 );
#374 = CARTESIAN_POINT( '', ( 0.000000000000000, 18.0000000000000, -7.54285714285714 ) );
#375 = AXIS2_PLACEMENT_3D( '', #412, #413, #414 );
#376 = COLOUR_RGB( '', 0.689999997600000, 0.689999997600000, 0.689999997600000 );
#377 = CARTESIAN_POINT( '', ( 0.000000000000000, 17.5428571428571, -8.00000000000000 ) );
#378 = AXIS2_PLACEMENT_3D( '', #415, #416, #417 );
#379 = COLOUR_RGB( '', 0.689999997600000, 0.689999997600000, 0.689999997600000 );
#380 = COLOUR_RGB( '', 0.689999997600000, 0.689999997600000, 0.689999997600000 );
#381 = COLOUR_RGB( '', 0.689999997600000, 0.689999997600000, 0.689999997600000 );
#382 = CARTESIAN_POINT( '', ( 0.000000000000000, 0.900000000000000, 0.000000000000000 ) );
#383 = DIRECTION( '', ( 0.000000000000000, -1.00000000000000, -0.000000000000000 ) );
#384 = DIRECTION( '', ( 0.000000000000000, 0.000000000000000, -1.00000000000000 ) );
#385 = CARTESIAN_POINT( '', ( 0.000000000000000, 0.000000000000000, 0.000000000000000 ) );
#386 = DIRECTION( '', ( 0.000000000000000, -1.00000000000000, -0.000000000000000 ) );
#387 = DIRECTION( '', ( 0.000000000000000, 0.000000000000000, -1.00000000000000 ) );
#388 = CARTESIAN_POINT( '', ( 0.000000000000000, 17.1000000000000, 0.000000000000000 ) );
#389 = DIRECTION( '', ( 0.000000000000000, -1.00000000000000, -0.000000000000000 ) );
#390 = DIRECTION( '', ( 0.000000000000000, 0.000000000000000, -1.00000000000000 ) );
#391 = CARTESIAN_POINT( '', ( 0.000000000000000, 17.1000000000000, 0.000000000000000 ) );
#392 = DIRECTION( '', ( 0.000000000000000, -1.00000000000000, -0.000000000000000 ) );
#393 = DIRECTION( '', ( 0.000000000000000, 0.000000000000000, -1.00000000000000 ) );
#394 = CARTESIAN_POINT( '', ( 0.000000000000000, 28.3575582190826, 0.000000000000000 ) );
#395 = DIRECTION( '', ( 0.000000000000000, -1.00000000000000, -0.000000000000000 ) );
#396 = DIRECTION( '', ( 0.000000000000000, 0.000000000000000, -1.00000000000000 ) );
#397 = CARTESIAN_POINT( '', ( 0.000000000000000, 16.2000000000000, 0.000000000000000 ) );
#398 = DIRECTION( '', ( 0.000000000000000, 1.00000000000000, 0.000000000000000 ) );
#399 = DIRECTION( '', ( 0.000000000000000, -0.000000000000000, 1.00000000000000 ) );
#400 = CARTESIAN_POINT( '', ( 0.000000000000000, 18.0000000000000, 0.000000000000000 ) );
#401 = DIRECTION( '', ( 0.000000000000000, -1.00000000000000, -0.000000000000000 ) );
#402 = DIRECTION( '', ( 0.000000000000000, 0.000000000000000, -1.00000000000000 ) );
#403 = CARTESIAN_POINT( '', ( 0.000000000000000, 9.00000000000000, 0.000000000000000 ) );
#404 = DIRECTION( '', ( 0.000000000000000, -1.00000000000000, -0.000000000000000 ) );
#405 = DIRECTION( '', ( 0.000000000000000, 0.000000000000000, -1.00000000000000 ) );
#406 = CARTESIAN_POINT( '', ( 0.000000000000000, 0.457142857142854, 0.000000000000000 ) );
#407 = DIRECTION( '', ( 0.000000000000000, -1.00000000000000, -0.000000000000000 ) );
#408 = DIRECTION( '', ( 0.000000000000000, 0.000000000000000, -1.00000000000000 ) );
#409 = CARTESIAN_POINT( '', ( 0.000000000000000, 1.08420217248550E-15, 0.000000000000000 ) );
#410 = DIRECTION( '', ( 0.000000000000000, -1.00000000000000, -0.000000000000000 ) );
#411 = DIRECTION( '', ( 0.000000000000000, 0.000000000000000, -1.00000000000000 ) );
#412 = CARTESIAN_POINT( '', ( 0.000000000000000, 18.0000000000000, 0.000000000000000 ) );
#413 = DIRECTION( '', ( 0.000000000000000, -1.00000000000000, -0.000000000000000 ) );
#414 = DIRECTION( '', ( 0.000000000000000, 0.000000000000000, -1.00000000000000 ) );
#415 = CARTESIAN_POINT( '', ( 0.000000000000000, 17.5428571428571, 0.000000000000000 ) );
#416 = DIRECTION( '', ( 0.000000000000000, -1.00000000000000, -0.000000000000000 ) );
#417 = DIRECTION( '', ( 0.000000000000000, 0.000000000000000, -1.00000000000000 ) );
ENDSEC;
END-ISO-10303-21;
