ISO-10303-21;
HEADER;
FILE_DESCRIPTION( ( 'STEP AP214' ), '1' );
FILE_NAME( '//goodhand-server/Shared Folders/GoodHand Data/Kipp CAD/K0368/K0368.22068_0.stp', '2020-12-03T11:52:23', ( '' ), ( '' ), ' ', 'PARTsolutions', ' ' );
FILE_SCHEMA( ( 'AUTOMOTIVE_DESIGN { 1 0 10303 214 1 1 1 1 }' ) );
ENDSEC;
DATA;
#1 = MECHANICAL_DESIGN_GEOMETRIC_PRESENTATION_REPRESENTATION( ' ', ( #10, #11, #12, #13, #14, #15, #16, #17, #18, #19, #20, #21, #22, #23 ), #6 );
#2 = PRODUCT_DEFINITION_CONTEXT( '', #24, 'design' );
#3 = APPLICATION_PROTOCOL_DEFINITION( 'international standard', 'automotive_design', 2001, #24 );
#4 = PRODUCT_CATEGORY_RELATIONSHIP( 'NONE', 'NONE', #25, #26 );
#5 = SHAPE_DEFINITION_REPRESENTATION( #27, #28 );
#6 =  ( GEOMETRIC_REPRESENTATION_CONTEXT( 3 )GLOBAL_UNCERTAINTY_ASSIGNED_CONTEXT( ( #31 ) )GLOBAL_UNIT_ASSIGNED_CONTEXT( ( #33, #34, #35 ) )REPRESENTATION_CONTEXT( 'NONE', 'WORKSPACE' ) );
#10 = STYLED_ITEM( '', ( #37 ), #38 );
#11 = STYLED_ITEM( '', ( #39 ), #40 );
#12 = STYLED_ITEM( '', ( #41 ), #42 );
#13 = STYLED_ITEM( '', ( #43 ), #44 );
#14 = STYLED_ITEM( '', ( #45 ), #46 );
#15 = STYLED_ITEM( '', ( #47 ), #48 );
#16 = STYLED_ITEM( '', ( #49 ), #50 );
#17 = STYLED_ITEM( '', ( #51 ), #52 );
#18 = STYLED_ITEM( '', ( #53 ), #54 );
#19 = STYLED_ITEM( '', ( #55 ), #56 );
#20 = STYLED_ITEM( '', ( #57 ), #58 );
#21 = STYLED_ITEM( '', ( #59 ), #60 );
#22 = STYLED_ITEM( '', ( #61 ), #62 );
#23 = STYLED_ITEM( '', ( #63 ), #64 );
#24 = APPLICATION_CONTEXT( 'core data for automotive mechanical design processes' );
#25 = PRODUCT_CATEGORY( 'part', 'NONE' );
#26 = PRODUCT_RELATED_PRODUCT_CATEGORY( 'detail', ' ', ( #65 ) );
#27 = PRODUCT_DEFINITION_SHAPE( 'NONE', 'NONE', #66 );
#28 = ADVANCED_BREP_SHAPE_REPRESENTATION( '_K0368.22068_0', ( #67, #68 ), #6 );
#31 = UNCERTAINTY_MEASURE_WITH_UNIT( LENGTH_MEASURE( 0.00100000000000000 ), #33, '', '' );
#33 =  ( CONVERSION_BASED_UNIT( 'MILLIMETRE', #71 )LENGTH_UNIT(  )NAMED_UNIT( #74 ) );
#34 =  ( NAMED_UNIT( #76 )PLANE_ANGLE_UNIT(  )SI_UNIT( $, .RADIAN. ) );
#35 =  ( NAMED_UNIT( #76 )SI_UNIT( $, .STERADIAN. )SOLID_ANGLE_UNIT(  ) );
#37 = PRESENTATION_STYLE_ASSIGNMENT( ( #82 ) );
#38 = ADVANCED_FACE( '', ( #83, #84 ), #85, .T. );
#39 = PRESENTATION_STYLE_ASSIGNMENT( ( #86 ) );
#40 = ADVANCED_FACE( '', ( #87 ), #88, .F. );
#41 = PRESENTATION_STYLE_ASSIGNMENT( ( #89 ) );
#42 = ADVANCED_FACE( '', ( #90 ), #91, .F. );
#43 = PRESENTATION_STYLE_ASSIGNMENT( ( #92 ) );
#44 = ADVANCED_FACE( '', ( #93, #94 ), #95, .T. );
#45 = PRESENTATION_STYLE_ASSIGNMENT( ( #96 ) );
#46 = ADVANCED_FACE( '', ( #97, #98 ), #99, .T. );
#47 = PRESENTATION_STYLE_ASSIGNMENT( ( #100 ) );
#48 = ADVANCED_FACE( '', ( #101, #102 ), #103, .F. );
#49 = PRESENTATION_STYLE_ASSIGNMENT( ( #104 ) );
#50 = ADVANCED_FACE( '', ( #105, #106 ), #107, .F. );
#51 = PRESENTATION_STYLE_ASSIGNMENT( ( #108 ) );
#52 = ADVANCED_FACE( '', ( #109, #110 ), #111, .T. );
#53 = PRESENTATION_STYLE_ASSIGNMENT( ( #112 ) );
#54 = ADVANCED_FACE( '', ( #113, #114 ), #115, .F. );
#55 = PRESENTATION_STYLE_ASSIGNMENT( ( #116 ) );
#56 = ADVANCED_FACE( '', ( #117 ), #118, .F. );
#57 = PRESENTATION_STYLE_ASSIGNMENT( ( #119 ) );
#58 = ADVANCED_FACE( '', ( #120, #121 ), #122, .T. );
#59 = PRESENTATION_STYLE_ASSIGNMENT( ( #123 ) );
#60 = ADVANCED_FACE( '', ( #124, #125 ), #126, .F. );
#61 = PRESENTATION_STYLE_ASSIGNMENT( ( #127 ) );
#62 = ADVANCED_FACE( '', ( #128, #129 ), #130, .F. );
#63 = PRESENTATION_STYLE_ASSIGNMENT( ( #131 ) );
#64 = ADVANCED_FACE( '', ( #132, #133 ), #134, .F. );
#65 = PRODUCT( '_K0368.22068_0', '_K0368.22068_0', 'PART-_K0368.22068_0-DESC', ( #135 ) );
#66 = PRODUCT_DEFINITION( 'NONE', 'NONE', #136, #2 );
#67 = BREP_WITH_VOIDS( '_K0368.22068_0', #137, ( #138 ) );
#68 = AXIS2_PLACEMENT_3D( '', #139, #140, #141 );
#71 = LENGTH_MEASURE_WITH_UNIT( LENGTH_MEASURE( 1.00000000000000 ), #142 );
#74 = DIMENSIONAL_EXPONENTS( 1.00000000000000, 0.000000000000000, 0.000000000000000, 0.000000000000000, 0.000000000000000, 0.000000000000000, 0.000000000000000 );
#76 = DIMENSIONAL_EXPONENTS( 0.000000000000000, 0.000000000000000, 0.000000000000000, 0.000000000000000, 0.000000000000000, 0.000000000000000, 0.000000000000000 );
#82 = SURFACE_STYLE_USAGE( .BOTH., #143 );
#83 = FACE_BOUND( '', #144, .T. );
#84 = FACE_OUTER_BOUND( '', #145, .T. );
#85 = CONICAL_SURFACE( '', #146, 2.97816466340000, 0.120725241800000 );
#86 = SURFACE_STYLE_USAGE( .BOTH., #147 );
#87 = FACE_OUTER_BOUND( '', #148, .T. );
#88 = PLANE( '', #149 );
#89 = SURFACE_STYLE_USAGE( .BOTH., #150 );
#90 = FACE_OUTER_BOUND( '', #151, .T. );
#91 = PLANE( '', #152 );
#92 = SURFACE_STYLE_USAGE( .BOTH., #153 );
#93 = FACE_OUTER_BOUND( '', #154, .T. );
#94 = FACE_OUTER_BOUND( '', #155, .T. );
#95 = TOROIDAL_SURFACE( '', #156, 4.71428571430000, 0.285714285700000 );
#96 = SURFACE_STYLE_USAGE( .BOTH., #157 );
#97 = FACE_OUTER_BOUND( '', #158, .T. );
#98 = FACE_OUTER_BOUND( '', #159, .T. );
#99 = TOROIDAL_SURFACE( '', #160, 4.71428571430000, 0.285714285700000 );
#100 = SURFACE_STYLE_USAGE( .BOTH., #161 );
#101 = FACE_OUTER_BOUND( '', #162, .T. );
#102 = FACE_OUTER_BOUND( '', #163, .T. );
#103 = CYLINDRICAL_SURFACE( '', #164, 3.50000000000000 );
#104 = SURFACE_STYLE_USAGE( .BOTH., #165 );
#105 = FACE_OUTER_BOUND( '', #166, .T. );
#106 = FACE_BOUND( '', #167, .T. );
#107 = PLANE( '', #168 );
#108 = SURFACE_STYLE_USAGE( .BOTH., #169 );
#109 = FACE_OUTER_BOUND( '', #170, .T. );
#110 = FACE_OUTER_BOUND( '', #171, .T. );
#111 = CYLINDRICAL_SURFACE( '', #172, 5.00000000000000 );
#112 = SURFACE_STYLE_USAGE( .BOTH., #173 );
#113 = FACE_BOUND( '', #174, .T. );
#114 = FACE_OUTER_BOUND( '', #175, .T. );
#115 = PLANE( '', #176 );
#116 = SURFACE_STYLE_USAGE( .BOTH., #177 );
#117 = FACE_OUTER_BOUND( '', #178, .T. );
#118 = PLANE( '', #179 );
#119 = SURFACE_STYLE_USAGE( .BOTH., #180 );
#120 = FACE_BOUND( '', #181, .T. );
#121 = FACE_OUTER_BOUND( '', #182, .T. );
#122 = SPHERICAL_SURFACE( '', #183, 3.00000000000000 );
#123 = SURFACE_STYLE_USAGE( .BOTH., #184 );
#124 = FACE_OUTER_BOUND( '', #185, .T. );
#125 = FACE_BOUND( '', #186, .T. );
#126 = PLANE( '', #187 );
#127 = SURFACE_STYLE_USAGE( .BOTH., #188 );
#128 = FACE_OUTER_BOUND( '', #189, .T. );
#129 = FACE_OUTER_BOUND( '', #190, .T. );
#130 = CYLINDRICAL_SURFACE( '', #191, 3.50000000000000 );
#131 = SURFACE_STYLE_USAGE( .BOTH., #192 );
#132 = FACE_OUTER_BOUND( '', #193, .T. );
#133 = FACE_OUTER_BOUND( '', #194, .T. );
#134 = CYLINDRICAL_SURFACE( '', #195, 3.50000000000000 );
#135 = PRODUCT_CONTEXT( '', #24, 'mechanical' );
#136 = PRODUCT_DEFINITION_FORMATION_WITH_SPECIFIED_SOURCE( ' ', 'NONE', #65, .NOT_KNOWN. );
#137 = CLOSED_SHELL( '', ( #38, #58, #50, #48, #60, #46, #52, #44, #54, #62, #56 ) );
#138 = ORIENTED_CLOSED_SHELL( '', *, #196, .T. );
#139 = CARTESIAN_POINT( '', ( 0.000000000000000, 0.000000000000000, 0.000000000000000 ) );
#140 = DIRECTION( '', ( 0.000000000000000, 0.000000000000000, 1.00000000000000 ) );
#141 = DIRECTION( '', ( 1.00000000000000, 0.000000000000000, 0.000000000000000 ) );
#142 =  ( LENGTH_UNIT(  )NAMED_UNIT( #74 )SI_UNIT( .MILLI., .METRE. ) );
#143 = SURFACE_SIDE_STYLE( '', ( #198 ) );
#144 = EDGE_LOOP( '', ( #199 ) );
#145 = EDGE_LOOP( '', ( #200 ) );
#146 = AXIS2_PLACEMENT_3D( '', #201, #202, #203 );
#147 = SURFACE_SIDE_STYLE( '', ( #204 ) );
#148 = EDGE_LOOP( '', ( #205 ) );
#149 = AXIS2_PLACEMENT_3D( '', #206, #207, #208 );
#150 = SURFACE_SIDE_STYLE( '', ( #209 ) );
#151 = EDGE_LOOP( '', ( #210 ) );
#152 = AXIS2_PLACEMENT_3D( '', #211, #212, #213 );
#153 = SURFACE_SIDE_STYLE( '', ( #214 ) );
#154 = EDGE_LOOP( '', ( #215 ) );
#155 = EDGE_LOOP( '', ( #216 ) );
#156 = AXIS2_PLACEMENT_3D( '', #217, #218, #219 );
#157 = SURFACE_SIDE_STYLE( '', ( #220 ) );
#158 = EDGE_LOOP( '', ( #221 ) );
#159 = EDGE_LOOP( '', ( #222 ) );
#160 = AXIS2_PLACEMENT_3D( '', #223, #224, #225 );
#161 = SURFACE_SIDE_STYLE( '', ( #226 ) );
#162 = EDGE_LOOP( '', ( #227 ) );
#163 = EDGE_LOOP( '', ( #228 ) );
#164 = AXIS2_PLACEMENT_3D( '', #229, #230, #231 );
#165 = SURFACE_SIDE_STYLE( '', ( #232 ) );
#166 = EDGE_LOOP( '', ( #233 ) );
#167 = EDGE_LOOP( '', ( #234 ) );
#168 = AXIS2_PLACEMENT_3D( '', #235, #236, #237 );
#169 = SURFACE_SIDE_STYLE( '', ( #238 ) );
#170 = EDGE_LOOP( '', ( #239 ) );
#171 = EDGE_LOOP( '', ( #240 ) );
#172 = AXIS2_PLACEMENT_3D( '', #241, #242, #243 );
#173 = SURFACE_SIDE_STYLE( '', ( #244 ) );
#174 = EDGE_LOOP( '', ( #245 ) );
#175 = EDGE_LOOP( '', ( #246 ) );
#176 = AXIS2_PLACEMENT_3D( '', #247, #248, #249 );
#177 = SURFACE_SIDE_STYLE( '', ( #250 ) );
#178 = EDGE_LOOP( '', ( #251 ) );
#179 = AXIS2_PLACEMENT_3D( '', #252, #253, #254 );
#180 = SURFACE_SIDE_STYLE( '', ( #255 ) );
#181 = VERTEX_LOOP( '', #256 );
#182 = EDGE_LOOP( '', ( #257 ) );
#183 = AXIS2_PLACEMENT_3D( '', #258, #259, #260 );
#184 = SURFACE_SIDE_STYLE( '', ( #261 ) );
#185 = EDGE_LOOP( '', ( #262 ) );
#186 = EDGE_LOOP( '', ( #263 ) );
#187 = AXIS2_PLACEMENT_3D( '', #264, #265, #266 );
#188 = SURFACE_SIDE_STYLE( '', ( #267 ) );
#189 = EDGE_LOOP( '', ( #268 ) );
#190 = EDGE_LOOP( '', ( #269 ) );
#191 = AXIS2_PLACEMENT_3D( '', #270, #271, #272 );
#192 = SURFACE_SIDE_STYLE( '', ( #273 ) );
#193 = EDGE_LOOP( '', ( #274 ) );
#194 = EDGE_LOOP( '', ( #275 ) );
#195 = AXIS2_PLACEMENT_3D( '', #276, #277, #278 );
#196 = CLOSED_SHELL( '', ( #64, #42, #40 ) );
#198 = SURFACE_STYLE_FILL_AREA( #279 );
#199 = ORIENTED_EDGE( '', *, *, #280, .F. );
#200 = ORIENTED_EDGE( '', *, *, #281, .T. );
#201 = CARTESIAN_POINT( '', ( 0.000000000000000, 18.6387033938365, 0.000000000000000 ) );
#202 = DIRECTION( '', ( -0.000000000000000, 1.00000000000000, 0.000000000000000 ) );
#203 = DIRECTION( '', ( 0.000000000000000, -0.000000000000000, 1.00000000000000 ) );
#204 = SURFACE_STYLE_FILL_AREA( #282 );
#205 = ORIENTED_EDGE( '', *, *, #283, .T. );
#206 = CARTESIAN_POINT( '', ( 4.00000000000000, 10.8000000000000, 0.000000000000000 ) );
#207 = DIRECTION( '', ( 0.000000000000000, 1.00000000000000, 0.000000000000000 ) );
#208 = DIRECTION( '', ( 0.000000000000000, -0.000000000000000, 1.00000000000000 ) );
#209 = SURFACE_STYLE_FILL_AREA( #284 );
#210 = ORIENTED_EDGE( '', *, *, #285, .F. );
#211 = CARTESIAN_POINT( '', ( 0.000000000000000, 6.00000000000000, 0.000000000000000 ) );
#212 = DIRECTION( '', ( 0.000000000000000, -1.00000000000000, -0.000000000000000 ) );
#213 = DIRECTION( '', ( 0.000000000000000, 0.000000000000000, -1.00000000000000 ) );
#214 = SURFACE_STYLE_FILL_AREA( #286 );
#215 = ORIENTED_EDGE( '', *, *, #287, .T. );
#216 = ORIENTED_EDGE( '', *, *, #288, .F. );
#217 = CARTESIAN_POINT( '', ( 0.000000000000000, 0.285714285714286, 0.000000000000000 ) );
#218 = DIRECTION( '', ( 0.000000000000000, -1.00000000000000, -0.000000000000000 ) );
#219 = DIRECTION( '', ( 0.000000000000000, 0.000000000000000, -1.00000000000000 ) );
#220 = SURFACE_STYLE_FILL_AREA( #289 );
#221 = ORIENTED_EDGE( '', *, *, #290, .T. );
#222 = ORIENTED_EDGE( '', *, *, #291, .F. );
#223 = CARTESIAN_POINT( '', ( 0.000000000000000, 11.7142857142857, 0.000000000000000 ) );
#224 = DIRECTION( '', ( 0.000000000000000, -1.00000000000000, -0.000000000000000 ) );
#225 = DIRECTION( '', ( 0.000000000000000, 0.000000000000000, -1.00000000000000 ) );
#226 = SURFACE_STYLE_FILL_AREA( #292 );
#227 = ORIENTED_EDGE( '', *, *, #293, .F. );
#228 = ORIENTED_EDGE( '', *, *, #294, .F. );
#229 = CARTESIAN_POINT( '', ( 0.000000000000000, 0.600000000000001, 0.000000000000000 ) );
#230 = DIRECTION( '', ( -0.000000000000000, 1.00000000000000, 0.000000000000000 ) );
#231 = DIRECTION( '', ( 0.000000000000000, 0.000000000000000, -1.00000000000000 ) );
#232 = SURFACE_STYLE_FILL_AREA( #295 );
#233 = ORIENTED_EDGE( '', *, *, #294, .T. );
#234 = ORIENTED_EDGE( '', *, *, #280, .T. );
#235 = CARTESIAN_POINT( '', ( 2.10000000000000, 11.4000000000000, 0.000000000000000 ) );
#236 = DIRECTION( '', ( 0.000000000000000, -1.00000000000000, -0.000000000000000 ) );
#237 = DIRECTION( '', ( 0.000000000000000, 0.000000000000000, -1.00000000000000 ) );
#238 = SURFACE_STYLE_FILL_AREA( #296 );
#239 = ORIENTED_EDGE( '', *, *, #287, .F. );
#240 = ORIENTED_EDGE( '', *, *, #291, .T. );
#241 = CARTESIAN_POINT( '', ( 0.000000000000000, 0.600000000000001, 0.000000000000000 ) );
#242 = DIRECTION( '', ( -0.000000000000000, 1.00000000000000, 0.000000000000000 ) );
#243 = DIRECTION( '', ( 0.000000000000000, 0.000000000000000, -1.00000000000000 ) );
#244 = SURFACE_STYLE_FILL_AREA( #297 );
#245 = ORIENTED_EDGE( '', *, *, #298, .F. );
#246 = ORIENTED_EDGE( '', *, *, #288, .T. );
#247 = CARTESIAN_POINT( '', ( -4.71428571428571, 1.08420217248550E-16, 5.77333491026609E-16 ) );
#248 = DIRECTION( '', ( 0.000000000000000, 1.00000000000000, 0.000000000000000 ) );
#249 = DIRECTION( '', ( 0.000000000000000, -0.000000000000000, 1.00000000000000 ) );
#250 = SURFACE_STYLE_FILL_AREA( #299 );
#251 = ORIENTED_EDGE( '', *, *, #300, .T. );
#252 = CARTESIAN_POINT( '', ( -3.50000000000000, 0.600000000000001, 4.28626379701574E-16 ) );
#253 = DIRECTION( '', ( 0.000000000000000, 1.00000000000000, 0.000000000000000 ) );
#254 = DIRECTION( '', ( 0.000000000000000, -0.000000000000000, 1.00000000000000 ) );
#255 = SURFACE_STYLE_FILL_AREA( #301 );
#256 = VERTEX_POINT( '', #302 );
#257 = ORIENTED_EDGE( '', *, *, #281, .F. );
#258 = CARTESIAN_POINT( '', ( -1.51788304147971E-15, 19.0000000000000, 0.000000000000000 ) );
#259 = DIRECTION( '', ( 0.000000000000000, -1.00000000000000, 0.000000000000000 ) );
#260 = DIRECTION( '', ( 1.00000000000000, 0.000000000000000, 0.000000000000000 ) );
#261 = SURFACE_STYLE_FILL_AREA( #303 );
#262 = ORIENTED_EDGE( '', *, *, #290, .F. );
#263 = ORIENTED_EDGE( '', *, *, #293, .T. );
#264 = CARTESIAN_POINT( '', ( -3.50000000000000, 12.0000000000000, 4.28626379701574E-16 ) );
#265 = DIRECTION( '', ( 0.000000000000000, -1.00000000000000, -0.000000000000000 ) );
#266 = DIRECTION( '', ( 0.000000000000000, 0.000000000000000, -1.00000000000000 ) );
#267 = SURFACE_STYLE_FILL_AREA( #304 );
#268 = ORIENTED_EDGE( '', *, *, #300, .F. );
#269 = ORIENTED_EDGE( '', *, *, #298, .T. );
#270 = CARTESIAN_POINT( '', ( 0.000000000000000, 0.600000000000001, 0.000000000000000 ) );
#271 = DIRECTION( '', ( -0.000000000000000, 1.00000000000000, 0.000000000000000 ) );
#272 = DIRECTION( '', ( 0.000000000000000, 0.000000000000000, -1.00000000000000 ) );
#273 = SURFACE_STYLE_FILL_AREA( #305 );
#274 = ORIENTED_EDGE( '', *, *, #283, .F. );
#275 = ORIENTED_EDGE( '', *, *, #285, .T. );
#276 = CARTESIAN_POINT( '', ( 0.000000000000000, 0.600000000000001, 0.000000000000000 ) );
#277 = DIRECTION( '', ( -0.000000000000000, 1.00000000000000, 0.000000000000000 ) );
#278 = DIRECTION( '', ( 0.000000000000000, 0.000000000000000, -1.00000000000000 ) );
#279 = FILL_AREA_STYLE( '', ( #306 ) );
#280 = EDGE_CURVE( '', #307, #307, #308, .T. );
#281 = EDGE_CURVE( '', #309, #309, #310, .T. );
#282 = FILL_AREA_STYLE( '', ( #311 ) );
#283 = EDGE_CURVE( '', #312, #312, #313, .F. );
#284 = FILL_AREA_STYLE( '', ( #314 ) );
#285 = EDGE_CURVE( '', #315, #315, #316, .T. );
#286 = FILL_AREA_STYLE( '', ( #317 ) );
#287 = EDGE_CURVE( '', #318, #318, #319, .T. );
#288 = EDGE_CURVE( '', #320, #320, #321, .T. );
#289 = FILL_AREA_STYLE( '', ( #322 ) );
#290 = EDGE_CURVE( '', #323, #323, #324, .T. );
#291 = EDGE_CURVE( '', #325, #325, #326, .T. );
#292 = FILL_AREA_STYLE( '', ( #327 ) );
#293 = EDGE_CURVE( '', #328, #328, #329, .T. );
#294 = EDGE_CURVE( '', #330, #330, #331, .F. );
#295 = FILL_AREA_STYLE( '', ( #332 ) );
#296 = FILL_AREA_STYLE( '', ( #333 ) );
#297 = FILL_AREA_STYLE( '', ( #334 ) );
#298 = EDGE_CURVE( '', #335, #335, #336, .T. );
#299 = FILL_AREA_STYLE( '', ( #337 ) );
#300 = EDGE_CURVE( '', #338, #338, #339, .T. );
#301 = FILL_AREA_STYLE( '', ( #340 ) );
#302 = CARTESIAN_POINT( '', ( -1.33418602160760E-15, 22.0000000000000, 0.000000000000000 ) );
#303 = FILL_AREA_STYLE( '', ( #341 ) );
#304 = FILL_AREA_STYLE( '', ( #342 ) );
#305 = FILL_AREA_STYLE( '', ( #343 ) );
#306 = FILL_AREA_STYLE_COLOUR( '', #344 );
#307 = VERTEX_POINT( '', #345 );
#308 = CIRCLE( '', #346, 2.10000000000000 );
#309 = VERTEX_POINT( '', #347 );
#310 = CIRCLE( '', #348, 2.97816466340000 );
#311 = FILL_AREA_STYLE_COLOUR( '', #349 );
#312 = VERTEX_POINT( '', #350 );
#313 = CIRCLE( '', #351, 3.50000000000000 );
#314 = FILL_AREA_STYLE_COLOUR( '', #352 );
#315 = VERTEX_POINT( '', #353 );
#316 = CIRCLE( '', #354, 3.50000000000000 );
#317 = FILL_AREA_STYLE_COLOUR( '', #355 );
#318 = VERTEX_POINT( '', #356 );
#319 = CIRCLE( '', #357, 5.00000000000000 );
#320 = VERTEX_POINT( '', #358 );
#321 = CIRCLE( '', #359, 4.71428571430000 );
#322 = FILL_AREA_STYLE_COLOUR( '', #360 );
#323 = VERTEX_POINT( '', #361 );
#324 = CIRCLE( '', #362, 4.71428571430000 );
#325 = VERTEX_POINT( '', #363 );
#326 = CIRCLE( '', #364, 5.00000000000000 );
#327 = FILL_AREA_STYLE_COLOUR( '', #365 );
#328 = VERTEX_POINT( '', #366 );
#329 = CIRCLE( '', #367, 3.50000000000000 );
#330 = VERTEX_POINT( '', #368 );
#331 = CIRCLE( '', #369, 3.50000000000000 );
#332 = FILL_AREA_STYLE_COLOUR( '', #370 );
#333 = FILL_AREA_STYLE_COLOUR( '', #371 );
#334 = FILL_AREA_STYLE_COLOUR( '', #372 );
#335 = VERTEX_POINT( '', #373 );
#336 = CIRCLE( '', #374, 3.50000000000000 );
#337 = FILL_AREA_STYLE_COLOUR( '', #375 );
#338 = VERTEX_POINT( '', #376 );
#339 = CIRCLE( '', #377, 3.50000000000000 );
#340 = FILL_AREA_STYLE_COLOUR( '', #378 );
#341 = FILL_AREA_STYLE_COLOUR( '', #379 );
#342 = FILL_AREA_STYLE_COLOUR( '', #380 );
#343 = FILL_AREA_STYLE_COLOUR( '', #381 );
#344 = COLOUR_RGB( '', 0.689999997600000, 0.689999997600000, 0.689999997600000 );
#345 = CARTESIAN_POINT( '', ( 0.000000000000000, 11.4000000000000, -2.10000000000000 ) );
#346 = AXIS2_PLACEMENT_3D( '', #382, #383, #384 );
#347 = CARTESIAN_POINT( '', ( 0.000000000000000, 18.6387033938365, -2.97816466340845 ) );
#348 = AXIS2_PLACEMENT_3D( '', #385, #386, #387 );
#349 = COLOUR_RGB( '', 0.689999997600000, 0.689999997600000, 0.689999997600000 );
#350 = CARTESIAN_POINT( '', ( 0.000000000000000, 10.8000000000000, 3.50000000000000 ) );
#351 = AXIS2_PLACEMENT_3D( '', #388, #389, #390 );
#352 = COLOUR_RGB( '', 0.689999997600000, 0.689999997600000, 0.689999997600000 );
#353 = CARTESIAN_POINT( '', ( 0.000000000000000, 6.00000000000000, -3.50000000000000 ) );
#354 = AXIS2_PLACEMENT_3D( '', #391, #392, #393 );
#355 = COLOUR_RGB( '', 0.689999997600000, 0.689999997600000, 0.689999997600000 );
#356 = CARTESIAN_POINT( '', ( 0.000000000000000, 0.285714285714287, -5.00000000000000 ) );
#357 = AXIS2_PLACEMENT_3D( '', #394, #395, #396 );
#358 = CARTESIAN_POINT( '', ( 0.000000000000000, 2.16840434497101E-16, -4.71428571428571 ) );
#359 = AXIS2_PLACEMENT_3D( '', #397, #398, #399 );
#360 = COLOUR_RGB( '', 0.689999997600000, 0.689999997600000, 0.689999997600000 );
#361 = CARTESIAN_POINT( '', ( 0.000000000000000, 12.0000000000000, -4.71428571428571 ) );
#362 = AXIS2_PLACEMENT_3D( '', #400, #401, #402 );
#363 = CARTESIAN_POINT( '', ( 0.000000000000000, 11.7142857142857, -5.00000000000000 ) );
#364 = AXIS2_PLACEMENT_3D( '', #403, #404, #405 );
#365 = COLOUR_RGB( '', 0.689999997600000, 0.689999997600000, 0.689999997600000 );
#366 = CARTESIAN_POINT( '', ( 0.000000000000000, 12.0000000000000, -3.50000000000000 ) );
#367 = AXIS2_PLACEMENT_3D( '', #406, #407, #408 );
#368 = CARTESIAN_POINT( '', ( 0.000000000000000, 11.4000000000000, -3.50000000000000 ) );
#369 = AXIS2_PLACEMENT_3D( '', #409, #410, #411 );
#370 = COLOUR_RGB( '', 0.689999997600000, 0.689999997600000, 0.689999997600000 );
#371 = COLOUR_RGB( '', 0.689999997600000, 0.689999997600000, 0.689999997600000 );
#372 = COLOUR_RGB( '', 0.689999997600000, 0.689999997600000, 0.689999997600000 );
#373 = CARTESIAN_POINT( '', ( 0.000000000000000, 0.000000000000000, -3.50000000000000 ) );
#374 = AXIS2_PLACEMENT_3D( '', #412, #413, #414 );
#375 = COLOUR_RGB( '', 0.689999997600000, 0.689999997600000, 0.689999997600000 );
#376 = CARTESIAN_POINT( '', ( 0.000000000000000, 0.600000000000000, -3.50000000000000 ) );
#377 = AXIS2_PLACEMENT_3D( '', #415, #416, #417 );
#378 = COLOUR_RGB( '', 0.689999997600000, 0.689999997600000, 0.689999997600000 );
#379 = COLOUR_RGB( '', 0.689999997600000, 0.689999997600000, 0.689999997600000 );
#380 = COLOUR_RGB( '', 0.689999997600000, 0.689999997600000, 0.689999997600000 );
#381 = COLOUR_RGB( '', 0.689999997600000, 0.689999997600000, 0.689999997600000 );
#382 = CARTESIAN_POINT( '', ( 0.000000000000000, 11.4000000000000, 0.000000000000000 ) );
#383 = DIRECTION( '', ( 0.000000000000000, -1.00000000000000, -0.000000000000000 ) );
#384 = DIRECTION( '', ( 0.000000000000000, 0.000000000000000, -1.00000000000000 ) );
#385 = CARTESIAN_POINT( '', ( 0.000000000000000, 18.6387033938365, 0.000000000000000 ) );
#386 = DIRECTION( '', ( 0.000000000000000, -1.00000000000000, -0.000000000000000 ) );
#387 = DIRECTION( '', ( 0.000000000000000, 0.000000000000000, -1.00000000000000 ) );
#388 = CARTESIAN_POINT( '', ( 0.000000000000000, 10.8000000000000, 0.000000000000000 ) );
#389 = DIRECTION( '', ( 0.000000000000000, 1.00000000000000, 0.000000000000000 ) );
#390 = DIRECTION( '', ( 0.000000000000000, -0.000000000000000, 1.00000000000000 ) );
#391 = CARTESIAN_POINT( '', ( 0.000000000000000, 6.00000000000000, 0.000000000000000 ) );
#392 = DIRECTION( '', ( 0.000000000000000, -1.00000000000000, -0.000000000000000 ) );
#393 = DIRECTION( '', ( 0.000000000000000, 0.000000000000000, -1.00000000000000 ) );
#394 = CARTESIAN_POINT( '', ( 0.000000000000000, 0.285714285714287, 0.000000000000000 ) );
#395 = DIRECTION( '', ( 0.000000000000000, -1.00000000000000, -0.000000000000000 ) );
#396 = DIRECTION( '', ( 0.000000000000000, 0.000000000000000, -1.00000000000000 ) );
#397 = CARTESIAN_POINT( '', ( 0.000000000000000, 2.16840434497101E-16, 0.000000000000000 ) );
#398 = DIRECTION( '', ( 0.000000000000000, -1.00000000000000, -0.000000000000000 ) );
#399 = DIRECTION( '', ( 0.000000000000000, 0.000000000000000, -1.00000000000000 ) );
#400 = CARTESIAN_POINT( '', ( 0.000000000000000, 12.0000000000000, 0.000000000000000 ) );
#401 = DIRECTION( '', ( 0.000000000000000, -1.00000000000000, -0.000000000000000 ) );
#402 = DIRECTION( '', ( 0.000000000000000, 0.000000000000000, -1.00000000000000 ) );
#403 = CARTESIAN_POINT( '', ( 0.000000000000000, 11.7142857142857, 0.000000000000000 ) );
#404 = DIRECTION( '', ( 0.000000000000000, -1.00000000000000, -0.000000000000000 ) );
#405 = DIRECTION( '', ( 0.000000000000000, 0.000000000000000, -1.00000000000000 ) );
#406 = CARTESIAN_POINT( '', ( 0.000000000000000, 12.0000000000000, 0.000000000000000 ) );
#407 = DIRECTION( '', ( 0.000000000000000, -1.00000000000000, -0.000000000000000 ) );
#408 = DIRECTION( '', ( 0.000000000000000, 0.000000000000000, -1.00000000000000 ) );
#409 = CARTESIAN_POINT( '', ( 0.000000000000000, 11.4000000000000, 0.000000000000000 ) );
#410 = DIRECTION( '', ( 0.000000000000000, -1.00000000000000, -0.000000000000000 ) );
#411 = DIRECTION( '', ( 0.000000000000000, 0.000000000000000, -1.00000000000000 ) );
#412 = CARTESIAN_POINT( '', ( 0.000000000000000, 0.000000000000000, 0.000000000000000 ) );
#413 = DIRECTION( '', ( 0.000000000000000, -1.00000000000000, -0.000000000000000 ) );
#414 = DIRECTION( '', ( 0.000000000000000, 0.000000000000000, -1.00000000000000 ) );
#415 = CARTESIAN_POINT( '', ( 0.000000000000000, 0.600000000000000, 0.000000000000000 ) );
#416 = DIRECTION( '', ( 0.000000000000000, -1.00000000000000, -0.000000000000000 ) );
#417 = DIRECTION( '', ( 0.000000000000000, 0.000000000000000, -1.00000000000000 ) );
ENDSEC;
END-ISO-10303-21;
