ISO-10303-21;
HEADER;
FILE_DESCRIPTION( ( 'STEP AP214' ), '1' );
FILE_NAME( '//goodhand-server/Shared Folders/GoodHand Data/Kipp CAD/K0368/K0368.22034_0.stp', '2020-12-03T11:52:08', ( '' ), ( '' ), ' ', 'PARTsolutions', ' ' );
FILE_SCHEMA( ( 'AUTOMOTIVE_DESIGN { 1 0 10303 214 1 1 1 1 }' ) );
ENDSEC;
DATA;
#1 = MECHANICAL_DESIGN_GEOMETRIC_PRESENTATION_REPRESENTATION( ' ', ( #10, #11, #12, #13, #14, #15, #16, #17, #18, #19, #20, #21, #22, #23 ), #6 );
#2 = PRODUCT_DEFINITION_CONTEXT( '', #24, 'design' );
#3 = APPLICATION_PROTOCOL_DEFINITION( 'international standard', 'automotive_design', 2001, #24 );
#4 = PRODUCT_CATEGORY_RELATIONSHIP( 'NONE', 'NONE', #25, #26 );
#5 = SHAPE_DEFINITION_REPRESENTATION( #27, #28 );
#6 =  ( GEOMETRIC_REPRESENTATION_CONTEXT( 3 )GLOBAL_UNCERTAINTY_ASSIGNED_CONTEXT( ( #31 ) )GLOBAL_UNIT_ASSIGNED_CONTEXT( ( #33, #34, #35 ) )REPRESENTATION_CONTEXT( 'NONE', 'WORKSPACE' ) );
#10 = STYLED_ITEM( '', ( #37 ), #38 );
#11 = STYLED_ITEM( '', ( #39 ), #40 );
#12 = STYLED_ITEM( '', ( #41 ), #42 );
#13 = STYLED_ITEM( '', ( #43 ), #44 );
#14 = STYLED_ITEM( '', ( #45 ), #46 );
#15 = STYLED_ITEM( '', ( #47 ), #48 );
#16 = STYLED_ITEM( '', ( #49 ), #50 );
#17 = STYLED_ITEM( '', ( #51 ), #52 );
#18 = STYLED_ITEM( '', ( #53 ), #54 );
#19 = STYLED_ITEM( '', ( #55 ), #56 );
#20 = STYLED_ITEM( '', ( #57 ), #58 );
#21 = STYLED_ITEM( '', ( #59 ), #60 );
#22 = STYLED_ITEM( '', ( #61 ), #62 );
#23 = STYLED_ITEM( '', ( #63 ), #64 );
#24 = APPLICATION_CONTEXT( 'core data for automotive mechanical design processes' );
#25 = PRODUCT_CATEGORY( 'part', 'NONE' );
#26 = PRODUCT_RELATED_PRODUCT_CATEGORY( 'detail', ' ', ( #65 ) );
#27 = PRODUCT_DEFINITION_SHAPE( 'NONE', 'NONE', #66 );
#28 = ADVANCED_BREP_SHAPE_REPRESENTATION( '_K0368.22034_0', ( #67, #68 ), #6 );
#31 = UNCERTAINTY_MEASURE_WITH_UNIT( LENGTH_MEASURE( 0.00100000000000000 ), #33, '', '' );
#33 =  ( CONVERSION_BASED_UNIT( 'MILLIMETRE', #71 )LENGTH_UNIT(  )NAMED_UNIT( #74 ) );
#34 =  ( NAMED_UNIT( #76 )PLANE_ANGLE_UNIT(  )SI_UNIT( $, .RADIAN. ) );
#35 =  ( NAMED_UNIT( #76 )SI_UNIT( $, .STERADIAN. )SOLID_ANGLE_UNIT(  ) );
#37 = PRESENTATION_STYLE_ASSIGNMENT( ( #82 ) );
#38 = ADVANCED_FACE( '', ( #83, #84 ), #85, .T. );
#39 = PRESENTATION_STYLE_ASSIGNMENT( ( #86 ) );
#40 = ADVANCED_FACE( '', ( #87, #88 ), #89, .F. );
#41 = PRESENTATION_STYLE_ASSIGNMENT( ( #90 ) );
#42 = ADVANCED_FACE( '', ( #91, #92 ), #93, .F. );
#43 = PRESENTATION_STYLE_ASSIGNMENT( ( #94 ) );
#44 = ADVANCED_FACE( '', ( #95, #96 ), #97, .T. );
#45 = PRESENTATION_STYLE_ASSIGNMENT( ( #98 ) );
#46 = ADVANCED_FACE( '', ( #99, #100 ), #101, .T. );
#47 = PRESENTATION_STYLE_ASSIGNMENT( ( #102 ) );
#48 = ADVANCED_FACE( '', ( #103 ), #104, .F. );
#49 = PRESENTATION_STYLE_ASSIGNMENT( ( #105 ) );
#50 = ADVANCED_FACE( '', ( #106, #107 ), #108, .F. );
#51 = PRESENTATION_STYLE_ASSIGNMENT( ( #109 ) );
#52 = ADVANCED_FACE( '', ( #110, #111 ), #112, .T. );
#53 = PRESENTATION_STYLE_ASSIGNMENT( ( #113 ) );
#54 = ADVANCED_FACE( '', ( #114, #115 ), #116, .F. );
#55 = PRESENTATION_STYLE_ASSIGNMENT( ( #117 ) );
#56 = ADVANCED_FACE( '', ( #118, #119 ), #120, .F. );
#57 = PRESENTATION_STYLE_ASSIGNMENT( ( #121 ) );
#58 = ADVANCED_FACE( '', ( #122, #123 ), #124, .F. );
#59 = PRESENTATION_STYLE_ASSIGNMENT( ( #125 ) );
#60 = ADVANCED_FACE( '', ( #126, #127 ), #128, .T. );
#61 = PRESENTATION_STYLE_ASSIGNMENT( ( #129 ) );
#62 = ADVANCED_FACE( '', ( #130 ), #131, .F. );
#63 = PRESENTATION_STYLE_ASSIGNMENT( ( #132 ) );
#64 = ADVANCED_FACE( '', ( #133 ), #134, .F. );
#65 = PRODUCT( '_K0368.22034_0', '_K0368.22034_0', 'PART-_K0368.22034_0-DESC', ( #135 ) );
#66 = PRODUCT_DEFINITION( 'NONE', 'NONE', #136, #2 );
#67 = BREP_WITH_VOIDS( '_K0368.22034_0', #137, ( #138 ) );
#68 = AXIS2_PLACEMENT_3D( '', #139, #140, #141 );
#71 = LENGTH_MEASURE_WITH_UNIT( LENGTH_MEASURE( 1.00000000000000 ), #142 );
#74 = DIMENSIONAL_EXPONENTS( 1.00000000000000, 0.000000000000000, 0.000000000000000, 0.000000000000000, 0.000000000000000, 0.000000000000000, 0.000000000000000 );
#76 = DIMENSIONAL_EXPONENTS( 0.000000000000000, 0.000000000000000, 0.000000000000000, 0.000000000000000, 0.000000000000000, 0.000000000000000, 0.000000000000000 );
#82 = SURFACE_STYLE_USAGE( .BOTH., #143 );
#83 = FACE_OUTER_BOUND( '', #144, .T. );
#84 = FACE_OUTER_BOUND( '', #145, .T. );
#85 = TOROIDAL_SURFACE( '', #146, 2.82857142860000, 0.171428571400000 );
#86 = SURFACE_STYLE_USAGE( .BOTH., #147 );
#87 = FACE_OUTER_BOUND( '', #148, .T. );
#88 = FACE_OUTER_BOUND( '', #149, .T. );
#89 = CYLINDRICAL_SURFACE( '', #150, 2.10000000000000 );
#90 = SURFACE_STYLE_USAGE( .BOTH., #151 );
#91 = FACE_BOUND( '', #152, .T. );
#92 = FACE_OUTER_BOUND( '', #153, .T. );
#93 = PLANE( '', #154 );
#94 = SURFACE_STYLE_USAGE( .BOTH., #155 );
#95 = FACE_BOUND( '', #156, .T. );
#96 = FACE_OUTER_BOUND( '', #157, .T. );
#97 = SPHERICAL_SURFACE( '', #158, 1.50000000000000 );
#98 = SURFACE_STYLE_USAGE( .BOTH., #159 );
#99 = FACE_OUTER_BOUND( '', #160, .T. );
#100 = FACE_OUTER_BOUND( '', #161, .T. );
#101 = TOROIDAL_SURFACE( '', #162, 2.82857142860000, 0.171428571400000 );
#102 = SURFACE_STYLE_USAGE( .BOTH., #163 );
#103 = FACE_OUTER_BOUND( '', #164, .T. );
#104 = PLANE( '', #165 );
#105 = SURFACE_STYLE_USAGE( .BOTH., #166 );
#106 = FACE_OUTER_BOUND( '', #167, .T. );
#107 = FACE_OUTER_BOUND( '', #168, .T. );
#108 = CYLINDRICAL_SURFACE( '', #169, 2.10000000000000 );
#109 = SURFACE_STYLE_USAGE( .BOTH., #170 );
#110 = FACE_BOUND( '', #171, .T. );
#111 = FACE_OUTER_BOUND( '', #172, .T. );
#112 = CONICAL_SURFACE( '', #173, 1.47998605010000, 0.163538437300000 );
#113 = SURFACE_STYLE_USAGE( .BOTH., #174 );
#114 = FACE_OUTER_BOUND( '', #175, .T. );
#115 = FACE_OUTER_BOUND( '', #176, .T. );
#116 = CYLINDRICAL_SURFACE( '', #177, 2.10000000000000 );
#117 = SURFACE_STYLE_USAGE( .BOTH., #178 );
#118 = FACE_OUTER_BOUND( '', #179, .T. );
#119 = FACE_BOUND( '', #180, .T. );
#120 = PLANE( '', #181 );
#121 = SURFACE_STYLE_USAGE( .BOTH., #182 );
#122 = FACE_OUTER_BOUND( '', #183, .T. );
#123 = FACE_BOUND( '', #184, .T. );
#124 = PLANE( '', #185 );
#125 = SURFACE_STYLE_USAGE( .BOTH., #186 );
#126 = FACE_OUTER_BOUND( '', #187, .T. );
#127 = FACE_OUTER_BOUND( '', #188, .T. );
#128 = CYLINDRICAL_SURFACE( '', #189, 3.00000000000000 );
#129 = SURFACE_STYLE_USAGE( .BOTH., #190 );
#130 = FACE_OUTER_BOUND( '', #191, .T. );
#131 = PLANE( '', #192 );
#132 = SURFACE_STYLE_USAGE( .BOTH., #193 );
#133 = FACE_OUTER_BOUND( '', #194, .T. );
#134 = PLANE( '', #195 );
#135 = PRODUCT_CONTEXT( '', #24, 'mechanical' );
#136 = PRODUCT_DEFINITION_FORMATION_WITH_SPECIFIED_SOURCE( ' ', 'NONE', #65, .NOT_KNOWN. );
#137 = CLOSED_SHELL( '', ( #52, #44, #56, #54, #58, #46, #60, #38, #42, #50, #48 ) );
#138 = ORIENTED_CLOSED_SHELL( '', *, #196, .T. );
#139 = CARTESIAN_POINT( '', ( 0.000000000000000, 0.000000000000000, 0.000000000000000 ) );
#140 = DIRECTION( '', ( 0.000000000000000, 0.000000000000000, 1.00000000000000 ) );
#141 = DIRECTION( '', ( 1.00000000000000, 0.000000000000000, 0.000000000000000 ) );
#142 =  ( LENGTH_UNIT(  )NAMED_UNIT( #74 )SI_UNIT( .MILLI., .METRE. ) );
#143 = SURFACE_SIDE_STYLE( '', ( #198 ) );
#144 = EDGE_LOOP( '', ( #199 ) );
#145 = EDGE_LOOP( '', ( #200 ) );
#146 = AXIS2_PLACEMENT_3D( '', #201, #202, #203 );
#147 = SURFACE_SIDE_STYLE( '', ( #204 ) );
#148 = EDGE_LOOP( '', ( #205 ) );
#149 = EDGE_LOOP( '', ( #206 ) );
#150 = AXIS2_PLACEMENT_3D( '', #207, #208, #209 );
#151 = SURFACE_SIDE_STYLE( '', ( #210 ) );
#152 = EDGE_LOOP( '', ( #211 ) );
#153 = EDGE_LOOP( '', ( #212 ) );
#154 = AXIS2_PLACEMENT_3D( '', #213, #214, #215 );
#155 = SURFACE_SIDE_STYLE( '', ( #216 ) );
#156 = VERTEX_LOOP( '', #217 );
#157 = EDGE_LOOP( '', ( #218 ) );
#158 = AXIS2_PLACEMENT_3D( '', #219, #220, #221 );
#159 = SURFACE_SIDE_STYLE( '', ( #222 ) );
#160 = EDGE_LOOP( '', ( #223 ) );
#161 = EDGE_LOOP( '', ( #224 ) );
#162 = AXIS2_PLACEMENT_3D( '', #225, #226, #227 );
#163 = SURFACE_SIDE_STYLE( '', ( #228 ) );
#164 = EDGE_LOOP( '', ( #229 ) );
#165 = AXIS2_PLACEMENT_3D( '', #230, #231, #232 );
#166 = SURFACE_SIDE_STYLE( '', ( #233 ) );
#167 = EDGE_LOOP( '', ( #234 ) );
#168 = EDGE_LOOP( '', ( #235 ) );
#169 = AXIS2_PLACEMENT_3D( '', #236, #237, #238 );
#170 = SURFACE_SIDE_STYLE( '', ( #239 ) );
#171 = EDGE_LOOP( '', ( #240 ) );
#172 = EDGE_LOOP( '', ( #241 ) );
#173 = AXIS2_PLACEMENT_3D( '', #242, #243, #244 );
#174 = SURFACE_SIDE_STYLE( '', ( #245 ) );
#175 = EDGE_LOOP( '', ( #246 ) );
#176 = EDGE_LOOP( '', ( #247 ) );
#177 = AXIS2_PLACEMENT_3D( '', #248, #249, #250 );
#178 = SURFACE_SIDE_STYLE( '', ( #251 ) );
#179 = EDGE_LOOP( '', ( #252 ) );
#180 = EDGE_LOOP( '', ( #253 ) );
#181 = AXIS2_PLACEMENT_3D( '', #254, #255, #256 );
#182 = SURFACE_SIDE_STYLE( '', ( #257 ) );
#183 = EDGE_LOOP( '', ( #258 ) );
#184 = EDGE_LOOP( '', ( #259 ) );
#185 = AXIS2_PLACEMENT_3D( '', #260, #261, #262 );
#186 = SURFACE_SIDE_STYLE( '', ( #263 ) );
#187 = EDGE_LOOP( '', ( #264 ) );
#188 = EDGE_LOOP( '', ( #265 ) );
#189 = AXIS2_PLACEMENT_3D( '', #266, #267, #268 );
#190 = SURFACE_SIDE_STYLE( '', ( #269 ) );
#191 = EDGE_LOOP( '', ( #270 ) );
#192 = AXIS2_PLACEMENT_3D( '', #271, #272, #273 );
#193 = SURFACE_SIDE_STYLE( '', ( #274 ) );
#194 = EDGE_LOOP( '', ( #275 ) );
#195 = AXIS2_PLACEMENT_3D( '', #276, #277, #278 );
#196 = CLOSED_SHELL( '', ( #40, #64, #62 ) );
#198 = SURFACE_STYLE_FILL_AREA( #279 );
#199 = ORIENTED_EDGE( '', *, *, #280, .T. );
#200 = ORIENTED_EDGE( '', *, *, #281, .F. );
#201 = CARTESIAN_POINT( '', ( 0.000000000000000, 0.171428571428571, 0.000000000000000 ) );
#202 = DIRECTION( '', ( 0.000000000000000, -1.00000000000000, -0.000000000000000 ) );
#203 = DIRECTION( '', ( 0.000000000000000, 0.000000000000000, -1.00000000000000 ) );
#204 = SURFACE_STYLE_FILL_AREA( #282 );
#205 = ORIENTED_EDGE( '', *, *, #283, .F. );
#206 = ORIENTED_EDGE( '', *, *, #284, .T. );
#207 = CARTESIAN_POINT( '', ( 0.000000000000000, 0.350000000000000, 0.000000000000000 ) );
#208 = DIRECTION( '', ( -0.000000000000000, 1.00000000000000, 0.000000000000000 ) );
#209 = DIRECTION( '', ( 0.000000000000000, 0.000000000000000, -1.00000000000000 ) );
#210 = SURFACE_STYLE_FILL_AREA( #285 );
#211 = ORIENTED_EDGE( '', *, *, #286, .F. );
#212 = ORIENTED_EDGE( '', *, *, #281, .T. );
#213 = CARTESIAN_POINT( '', ( -2.82857142857143, -1.35525271560688E-16, 3.46400094615966E-16 ) );
#214 = DIRECTION( '', ( 0.000000000000000, 1.00000000000000, 0.000000000000000 ) );
#215 = DIRECTION( '', ( 0.000000000000000, -0.000000000000000, 1.00000000000000 ) );
#216 = SURFACE_STYLE_FILL_AREA( #287 );
#217 = VERTEX_POINT( '', #288 );
#218 = ORIENTED_EDGE( '', *, *, #289, .F. );
#219 = CARTESIAN_POINT( '', ( 2.71050543121376E-15, 9.50000000000000, 0.000000000000000 ) );
#220 = DIRECTION( '', ( 0.000000000000000, -1.00000000000000, 0.000000000000000 ) );
#221 = DIRECTION( '', ( 1.00000000000000, 0.000000000000000, 0.000000000000000 ) );
#222 = SURFACE_STYLE_FILL_AREA( #290 );
#223 = ORIENTED_EDGE( '', *, *, #291, .T. );
#224 = ORIENTED_EDGE( '', *, *, #292, .F. );
#225 = CARTESIAN_POINT( '', ( 0.000000000000000, 6.82857142857143, 0.000000000000000 ) );
#226 = DIRECTION( '', ( 0.000000000000000, -1.00000000000000, -0.000000000000000 ) );
#227 = DIRECTION( '', ( 0.000000000000000, 0.000000000000000, -1.00000000000000 ) );
#228 = SURFACE_STYLE_FILL_AREA( #293 );
#229 = ORIENTED_EDGE( '', *, *, #294, .T. );
#230 = CARTESIAN_POINT( '', ( -2.10000000000000, 0.350000000000000, 2.57175827820944E-16 ) );
#231 = DIRECTION( '', ( 0.000000000000000, 1.00000000000000, 0.000000000000000 ) );
#232 = DIRECTION( '', ( 0.000000000000000, -0.000000000000000, 1.00000000000000 ) );
#233 = SURFACE_STYLE_FILL_AREA( #295 );
#234 = ORIENTED_EDGE( '', *, *, #294, .F. );
#235 = ORIENTED_EDGE( '', *, *, #286, .T. );
#236 = CARTESIAN_POINT( '', ( 0.000000000000000, 0.350000000000000, 0.000000000000000 ) );
#237 = DIRECTION( '', ( -0.000000000000000, 1.00000000000000, 0.000000000000000 ) );
#238 = DIRECTION( '', ( 0.000000000000000, 0.000000000000000, -1.00000000000000 ) );
#239 = SURFACE_STYLE_FILL_AREA( #296 );
#240 = ORIENTED_EDGE( '', *, *, #297, .F. );
#241 = ORIENTED_EDGE( '', *, *, #289, .T. );
#242 = CARTESIAN_POINT( '', ( 0.000000000000000, 9.25578433426200, 0.000000000000000 ) );
#243 = DIRECTION( '', ( -0.000000000000000, 1.00000000000000, 0.000000000000000 ) );
#244 = DIRECTION( '', ( 0.000000000000000, -0.000000000000000, 1.00000000000000 ) );
#245 = SURFACE_STYLE_FILL_AREA( #298 );
#246 = ORIENTED_EDGE( '', *, *, #299, .F. );
#247 = ORIENTED_EDGE( '', *, *, #300, .F. );
#248 = CARTESIAN_POINT( '', ( 0.000000000000000, 0.350000000000000, 0.000000000000000 ) );
#249 = DIRECTION( '', ( -0.000000000000000, 1.00000000000000, 0.000000000000000 ) );
#250 = DIRECTION( '', ( 0.000000000000000, 0.000000000000000, -1.00000000000000 ) );
#251 = SURFACE_STYLE_FILL_AREA( #301 );
#252 = ORIENTED_EDGE( '', *, *, #300, .T. );
#253 = ORIENTED_EDGE( '', *, *, #297, .T. );
#254 = CARTESIAN_POINT( '', ( 1.05000000000000, 6.65000000000000, 0.000000000000000 ) );
#255 = DIRECTION( '', ( 0.000000000000000, -1.00000000000000, -0.000000000000000 ) );
#256 = DIRECTION( '', ( 0.000000000000000, 0.000000000000000, -1.00000000000000 ) );
#257 = SURFACE_STYLE_FILL_AREA( #302 );
#258 = ORIENTED_EDGE( '', *, *, #291, .F. );
#259 = ORIENTED_EDGE( '', *, *, #299, .T. );
#260 = CARTESIAN_POINT( '', ( -2.10000000000000, 7.00000000000000, 2.57175827820944E-16 ) );
#261 = DIRECTION( '', ( 0.000000000000000, -1.00000000000000, -0.000000000000000 ) );
#262 = DIRECTION( '', ( 0.000000000000000, 0.000000000000000, -1.00000000000000 ) );
#263 = SURFACE_STYLE_FILL_AREA( #303 );
#264 = ORIENTED_EDGE( '', *, *, #280, .F. );
#265 = ORIENTED_EDGE( '', *, *, #292, .T. );
#266 = CARTESIAN_POINT( '', ( 0.000000000000000, 0.350000000000000, 0.000000000000000 ) );
#267 = DIRECTION( '', ( -0.000000000000000, 1.00000000000000, 0.000000000000000 ) );
#268 = DIRECTION( '', ( 0.000000000000000, 0.000000000000000, -1.00000000000000 ) );
#269 = SURFACE_STYLE_FILL_AREA( #304 );
#270 = ORIENTED_EDGE( '', *, *, #283, .T. );
#271 = CARTESIAN_POINT( '', ( 2.40000000000000, 6.30000000000000, 0.000000000000000 ) );
#272 = DIRECTION( '', ( 0.000000000000000, 1.00000000000000, 0.000000000000000 ) );
#273 = DIRECTION( '', ( 0.000000000000000, -0.000000000000000, 1.00000000000000 ) );
#274 = SURFACE_STYLE_FILL_AREA( #305 );
#275 = ORIENTED_EDGE( '', *, *, #284, .F. );
#276 = CARTESIAN_POINT( '', ( 0.000000000000000, 3.50000000000000, 0.000000000000000 ) );
#277 = DIRECTION( '', ( 0.000000000000000, -1.00000000000000, -0.000000000000000 ) );
#278 = DIRECTION( '', ( 0.000000000000000, 0.000000000000000, -1.00000000000000 ) );
#279 = FILL_AREA_STYLE( '', ( #306 ) );
#280 = EDGE_CURVE( '', #307, #307, #308, .T. );
#281 = EDGE_CURVE( '', #309, #309, #310, .T. );
#282 = FILL_AREA_STYLE( '', ( #311 ) );
#283 = EDGE_CURVE( '', #312, #312, #313, .F. );
#284 = EDGE_CURVE( '', #314, #314, #315, .T. );
#285 = FILL_AREA_STYLE( '', ( #316 ) );
#286 = EDGE_CURVE( '', #317, #317, #318, .T. );
#287 = FILL_AREA_STYLE( '', ( #319 ) );
#288 = CARTESIAN_POINT( '', ( 2.80235394114981E-15, 11.0000000000000, 0.000000000000000 ) );
#289 = EDGE_CURVE( '', #320, #320, #321, .T. );
#290 = FILL_AREA_STYLE( '', ( #322 ) );
#291 = EDGE_CURVE( '', #323, #323, #324, .T. );
#292 = EDGE_CURVE( '', #325, #325, #326, .T. );
#293 = FILL_AREA_STYLE( '', ( #327 ) );
#294 = EDGE_CURVE( '', #328, #328, #329, .T. );
#295 = FILL_AREA_STYLE( '', ( #330 ) );
#296 = FILL_AREA_STYLE( '', ( #331 ) );
#297 = EDGE_CURVE( '', #332, #332, #333, .T. );
#298 = FILL_AREA_STYLE( '', ( #334 ) );
#299 = EDGE_CURVE( '', #335, #335, #336, .T. );
#300 = EDGE_CURVE( '', #337, #337, #338, .F. );
#301 = FILL_AREA_STYLE( '', ( #339 ) );
#302 = FILL_AREA_STYLE( '', ( #340 ) );
#303 = FILL_AREA_STYLE( '', ( #341 ) );
#304 = FILL_AREA_STYLE( '', ( #342 ) );
#305 = FILL_AREA_STYLE( '', ( #343 ) );
#306 = FILL_AREA_STYLE_COLOUR( '', #344 );
#307 = VERTEX_POINT( '', #345 );
#308 = CIRCLE( '', #346, 3.00000000000000 );
#309 = VERTEX_POINT( '', #347 );
#310 = CIRCLE( '', #348, 2.82857142860000 );
#311 = FILL_AREA_STYLE_COLOUR( '', #349 );
#312 = VERTEX_POINT( '', #350 );
#313 = CIRCLE( '', #351, 2.10000000000000 );
#314 = VERTEX_POINT( '', #352 );
#315 = CIRCLE( '', #353, 2.10000000000000 );
#316 = FILL_AREA_STYLE_COLOUR( '', #354 );
#317 = VERTEX_POINT( '', #355 );
#318 = CIRCLE( '', #356, 2.10000000000000 );
#319 = FILL_AREA_STYLE_COLOUR( '', #357 );
#320 = VERTEX_POINT( '', #358 );
#321 = CIRCLE( '', #359, 1.47998605010000 );
#322 = FILL_AREA_STYLE_COLOUR( '', #360 );
#323 = VERTEX_POINT( '', #361 );
#324 = CIRCLE( '', #362, 2.82857142860000 );
#325 = VERTEX_POINT( '', #363 );
#326 = CIRCLE( '', #364, 3.00000000000000 );
#327 = FILL_AREA_STYLE_COLOUR( '', #365 );
#328 = VERTEX_POINT( '', #366 );
#329 = CIRCLE( '', #367, 2.10000000000000 );
#330 = FILL_AREA_STYLE_COLOUR( '', #368 );
#331 = FILL_AREA_STYLE_COLOUR( '', #369 );
#332 = VERTEX_POINT( '', #370 );
#333 = CIRCLE( '', #371, 1.05000000000000 );
#334 = FILL_AREA_STYLE_COLOUR( '', #372 );
#335 = VERTEX_POINT( '', #373 );
#336 = CIRCLE( '', #374, 2.10000000000000 );
#337 = VERTEX_POINT( '', #375 );
#338 = CIRCLE( '', #376, 2.10000000000000 );
#339 = FILL_AREA_STYLE_COLOUR( '', #377 );
#340 = FILL_AREA_STYLE_COLOUR( '', #378 );
#341 = FILL_AREA_STYLE_COLOUR( '', #379 );
#342 = FILL_AREA_STYLE_COLOUR( '', #380 );
#343 = FILL_AREA_STYLE_COLOUR( '', #381 );
#344 = COLOUR_RGB( '', 0.689999997600000, 0.689999997600000, 0.689999997600000 );
#345 = CARTESIAN_POINT( '', ( 0.000000000000000, 0.171428571428572, -3.00000000000000 ) );
#346 = AXIS2_PLACEMENT_3D( '', #382, #383, #384 );
#347 = CARTESIAN_POINT( '', ( 0.000000000000000, -2.71050543121376E-16, -2.82857142857143 ) );
#348 = AXIS2_PLACEMENT_3D( '', #385, #386, #387 );
#349 = COLOUR_RGB( '', 0.689999997600000, 0.689999997600000, 0.689999997600000 );
#350 = CARTESIAN_POINT( '', ( 0.000000000000000, 6.30000000000000, 2.10000000000000 ) );
#351 = AXIS2_PLACEMENT_3D( '', #388, #389, #390 );
#352 = CARTESIAN_POINT( '', ( 0.000000000000000, 3.50000000000000, -2.10000000000000 ) );
#353 = AXIS2_PLACEMENT_3D( '', #391, #392, #393 );
#354 = COLOUR_RGB( '', 0.689999997600000, 0.689999997600000, 0.689999997600000 );
#355 = CARTESIAN_POINT( '', ( 0.000000000000000, 0.000000000000000, -2.10000000000000 ) );
#356 = AXIS2_PLACEMENT_3D( '', #394, #395, #396 );
#357 = COLOUR_RGB( '', 0.689999997600000, 0.689999997600000, 0.689999997600000 );
#358 = CARTESIAN_POINT( '', ( 0.000000000000000, 9.25578433426200, -1.47998605013971 ) );
#359 = AXIS2_PLACEMENT_3D( '', #397, #398, #399 );
#360 = COLOUR_RGB( '', 0.689999997600000, 0.689999997600000, 0.689999997600000 );
#361 = CARTESIAN_POINT( '', ( 0.000000000000000, 7.00000000000000, -2.82857142857143 ) );
#362 = AXIS2_PLACEMENT_3D( '', #400, #401, #402 );
#363 = CARTESIAN_POINT( '', ( 0.000000000000000, 6.82857142857143, -3.00000000000000 ) );
#364 = AXIS2_PLACEMENT_3D( '', #403, #404, #405 );
#365 = COLOUR_RGB( '', 0.689999997600000, 0.689999997600000, 0.689999997600000 );
#366 = CARTESIAN_POINT( '', ( 0.000000000000000, 0.350000000000000, -2.10000000000000 ) );
#367 = AXIS2_PLACEMENT_3D( '', #406, #407, #408 );
#368 = COLOUR_RGB( '', 0.689999997600000, 0.689999997600000, 0.689999997600000 );
#369 = COLOUR_RGB( '', 0.689999997600000, 0.689999997600000, 0.689999997600000 );
#370 = CARTESIAN_POINT( '', ( 0.000000000000000, 6.65000000000000, -1.05000000000000 ) );
#371 = AXIS2_PLACEMENT_3D( '', #409, #410, #411 );
#372 = COLOUR_RGB( '', 0.689999997600000, 0.689999997600000, 0.689999997600000 );
#373 = CARTESIAN_POINT( '', ( 0.000000000000000, 7.00000000000000, -2.10000000000000 ) );
#374 = AXIS2_PLACEMENT_3D( '', #412, #413, #414 );
#375 = CARTESIAN_POINT( '', ( 0.000000000000000, 6.65000000000000, -2.10000000000000 ) );
#376 = AXIS2_PLACEMENT_3D( '', #415, #416, #417 );
#377 = COLOUR_RGB( '', 0.689999997600000, 0.689999997600000, 0.689999997600000 );
#378 = COLOUR_RGB( '', 0.689999997600000, 0.689999997600000, 0.689999997600000 );
#379 = COLOUR_RGB( '', 0.689999997600000, 0.689999997600000, 0.689999997600000 );
#380 = COLOUR_RGB( '', 0.689999997600000, 0.689999997600000, 0.689999997600000 );
#381 = COLOUR_RGB( '', 0.689999997600000, 0.689999997600000, 0.689999997600000 );
#382 = CARTESIAN_POINT( '', ( 0.000000000000000, 0.171428571428572, 0.000000000000000 ) );
#383 = DIRECTION( '', ( 0.000000000000000, -1.00000000000000, -0.000000000000000 ) );
#384 = DIRECTION( '', ( 0.000000000000000, 0.000000000000000, -1.00000000000000 ) );
#385 = CARTESIAN_POINT( '', ( 0.000000000000000, -2.71050543121376E-16, 0.000000000000000 ) );
#386 = DIRECTION( '', ( 0.000000000000000, -1.00000000000000, -0.000000000000000 ) );
#387 = DIRECTION( '', ( 0.000000000000000, 0.000000000000000, -1.00000000000000 ) );
#388 = CARTESIAN_POINT( '', ( 0.000000000000000, 6.30000000000000, 0.000000000000000 ) );
#389 = DIRECTION( '', ( 0.000000000000000, 1.00000000000000, 0.000000000000000 ) );
#390 = DIRECTION( '', ( 0.000000000000000, -0.000000000000000, 1.00000000000000 ) );
#391 = CARTESIAN_POINT( '', ( 0.000000000000000, 3.50000000000000, 0.000000000000000 ) );
#392 = DIRECTION( '', ( 0.000000000000000, -1.00000000000000, -0.000000000000000 ) );
#393 = DIRECTION( '', ( 0.000000000000000, 0.000000000000000, -1.00000000000000 ) );
#394 = CARTESIAN_POINT( '', ( 0.000000000000000, 0.000000000000000, 0.000000000000000 ) );
#395 = DIRECTION( '', ( 0.000000000000000, -1.00000000000000, -0.000000000000000 ) );
#396 = DIRECTION( '', ( 0.000000000000000, 0.000000000000000, -1.00000000000000 ) );
#397 = CARTESIAN_POINT( '', ( 0.000000000000000, 9.25578433426200, 0.000000000000000 ) );
#398 = DIRECTION( '', ( 0.000000000000000, -1.00000000000000, -0.000000000000000 ) );
#399 = DIRECTION( '', ( 0.000000000000000, 0.000000000000000, -1.00000000000000 ) );
#400 = CARTESIAN_POINT( '', ( 0.000000000000000, 7.00000000000000, 0.000000000000000 ) );
#401 = DIRECTION( '', ( 0.000000000000000, -1.00000000000000, -0.000000000000000 ) );
#402 = DIRECTION( '', ( 0.000000000000000, 0.000000000000000, -1.00000000000000 ) );
#403 = CARTESIAN_POINT( '', ( 0.000000000000000, 6.82857142857143, 0.000000000000000 ) );
#404 = DIRECTION( '', ( 0.000000000000000, -1.00000000000000, -0.000000000000000 ) );
#405 = DIRECTION( '', ( 0.000000000000000, 0.000000000000000, -1.00000000000000 ) );
#406 = CARTESIAN_POINT( '', ( 0.000000000000000, 0.350000000000000, 0.000000000000000 ) );
#407 = DIRECTION( '', ( 0.000000000000000, -1.00000000000000, -0.000000000000000 ) );
#408 = DIRECTION( '', ( 0.000000000000000, 0.000000000000000, -1.00000000000000 ) );
#409 = CARTESIAN_POINT( '', ( 0.000000000000000, 6.65000000000000, 0.000000000000000 ) );
#410 = DIRECTION( '', ( 0.000000000000000, -1.00000000000000, -0.000000000000000 ) );
#411 = DIRECTION( '', ( 0.000000000000000, 0.000000000000000, -1.00000000000000 ) );
#412 = CARTESIAN_POINT( '', ( 0.000000000000000, 7.00000000000000, 0.000000000000000 ) );
#413 = DIRECTION( '', ( 0.000000000000000, -1.00000000000000, -0.000000000000000 ) );
#414 = DIRECTION( '', ( 0.000000000000000, 0.000000000000000, -1.00000000000000 ) );
#415 = CARTESIAN_POINT( '', ( 0.000000000000000, 6.65000000000000, 0.000000000000000 ) );
#416 = DIRECTION( '', ( 0.000000000000000, -1.00000000000000, -0.000000000000000 ) );
#417 = DIRECTION( '', ( 0.000000000000000, 0.000000000000000, -1.00000000000000 ) );
ENDSEC;
END-ISO-10303-21;
