ISO-10303-21;
HEADER;
FILE_DESCRIPTION( ( 'STEP AP214' ), '1' );
FILE_NAME( '//goodhand-server/Shared Folders/GoodHand Data/Kipp CAD/K0368/K0368.21086_0.stp', '2020-12-03T11:51:58', ( '' ), ( '' ), ' ', 'PARTsolutions', ' ' );
FILE_SCHEMA( ( 'AUTOMOTIVE_DESIGN { 1 0 10303 214 1 1 1 1 }' ) );
ENDSEC;
DATA;
#1 = MECHANICAL_DESIGN_GEOMETRIC_PRESENTATION_REPRESENTATION( ' ', ( #10, #11, #12, #13, #14, #15, #16, #17, #18, #19, #20, #21, #22, #23 ), #6 );
#2 = PRODUCT_DEFINITION_CONTEXT( '', #24, 'design' );
#3 = APPLICATION_PROTOCOL_DEFINITION( 'international standard', 'automotive_design', 2001, #24 );
#4 = PRODUCT_CATEGORY_RELATIONSHIP( 'NONE', 'NONE', #25, #26 );
#5 = SHAPE_DEFINITION_REPRESENTATION( #27, #28 );
#6 =  ( GEOMETRIC_REPRESENTATION_CONTEXT( 3 )GLOBAL_UNCERTAINTY_ASSIGNED_CONTEXT( ( #31 ) )GLOBAL_UNIT_ASSIGNED_CONTEXT( ( #33, #34, #35 ) )REPRESENTATION_CONTEXT( 'NONE', 'WORKSPACE' ) );
#10 = STYLED_ITEM( '', ( #37 ), #38 );
#11 = STYLED_ITEM( '', ( #39 ), #40 );
#12 = STYLED_ITEM( '', ( #41 ), #42 );
#13 = STYLED_ITEM( '', ( #43 ), #44 );
#14 = STYLED_ITEM( '', ( #45 ), #46 );
#15 = STYLED_ITEM( '', ( #47 ), #48 );
#16 = STYLED_ITEM( '', ( #49 ), #50 );
#17 = STYLED_ITEM( '', ( #51 ), #52 );
#18 = STYLED_ITEM( '', ( #53 ), #54 );
#19 = STYLED_ITEM( '', ( #55 ), #56 );
#20 = STYLED_ITEM( '', ( #57 ), #58 );
#21 = STYLED_ITEM( '', ( #59 ), #60 );
#22 = STYLED_ITEM( '', ( #61 ), #62 );
#23 = STYLED_ITEM( '', ( #63 ), #64 );
#24 = APPLICATION_CONTEXT( 'core data for automotive mechanical design processes' );
#25 = PRODUCT_CATEGORY( 'part', 'NONE' );
#26 = PRODUCT_RELATED_PRODUCT_CATEGORY( 'detail', ' ', ( #65 ) );
#27 = PRODUCT_DEFINITION_SHAPE( 'NONE', 'NONE', #66 );
#28 = ADVANCED_BREP_SHAPE_REPRESENTATION( '_K0368.21086_0', ( #67, #68 ), #6 );
#31 = UNCERTAINTY_MEASURE_WITH_UNIT( LENGTH_MEASURE( 0.00100000000000000 ), #33, '', '' );
#33 =  ( CONVERSION_BASED_UNIT( 'MILLIMETRE', #71 )LENGTH_UNIT(  )NAMED_UNIT( #74 ) );
#34 =  ( NAMED_UNIT( #76 )PLANE_ANGLE_UNIT(  )SI_UNIT( $, .RADIAN. ) );
#35 =  ( NAMED_UNIT( #76 )SI_UNIT( $, .STERADIAN. )SOLID_ANGLE_UNIT(  ) );
#37 = PRESENTATION_STYLE_ASSIGNMENT( ( #82 ) );
#38 = ADVANCED_FACE( '', ( #83 ), #84, .F. );
#39 = PRESENTATION_STYLE_ASSIGNMENT( ( #85 ) );
#40 = ADVANCED_FACE( '', ( #86, #87 ), #88, .F. );
#41 = PRESENTATION_STYLE_ASSIGNMENT( ( #89 ) );
#42 = ADVANCED_FACE( '', ( #90, #91 ), #92, .T. );
#43 = PRESENTATION_STYLE_ASSIGNMENT( ( #93 ) );
#44 = ADVANCED_FACE( '', ( #94, #95 ), #96, .F. );
#45 = PRESENTATION_STYLE_ASSIGNMENT( ( #97 ) );
#46 = ADVANCED_FACE( '', ( #98, #99 ), #100, .F. );
#47 = PRESENTATION_STYLE_ASSIGNMENT( ( #101 ) );
#48 = ADVANCED_FACE( '', ( #102 ), #103, .F. );
#49 = PRESENTATION_STYLE_ASSIGNMENT( ( #104 ) );
#50 = ADVANCED_FACE( '', ( #105, #106 ), #107, .T. );
#51 = PRESENTATION_STYLE_ASSIGNMENT( ( #108 ) );
#52 = ADVANCED_FACE( '', ( #109, #110 ), #111, .T. );
#53 = PRESENTATION_STYLE_ASSIGNMENT( ( #112 ) );
#54 = ADVANCED_FACE( '', ( #113, #114 ), #115, .F. );
#55 = PRESENTATION_STYLE_ASSIGNMENT( ( #116 ) );
#56 = ADVANCED_FACE( '', ( #117, #118 ), #119, .F. );
#57 = PRESENTATION_STYLE_ASSIGNMENT( ( #120 ) );
#58 = ADVANCED_FACE( '', ( #121, #122 ), #123, .F. );
#59 = PRESENTATION_STYLE_ASSIGNMENT( ( #124 ) );
#60 = ADVANCED_FACE( '', ( #125 ), #126, .F. );
#61 = PRESENTATION_STYLE_ASSIGNMENT( ( #127 ) );
#62 = ADVANCED_FACE( '', ( #128, #129 ), #130, .T. );
#63 = PRESENTATION_STYLE_ASSIGNMENT( ( #131 ) );
#64 = ADVANCED_FACE( '', ( #132, #133 ), #134, .T. );
#65 = PRODUCT( '_K0368.21086_0', '_K0368.21086_0', 'PART-_K0368.21086_0-DESC', ( #135 ) );
#66 = PRODUCT_DEFINITION( 'NONE', 'NONE', #136, #2 );
#67 = BREP_WITH_VOIDS( '_K0368.21086_0', #137, ( #138 ) );
#68 = AXIS2_PLACEMENT_3D( '', #139, #140, #141 );
#71 = LENGTH_MEASURE_WITH_UNIT( LENGTH_MEASURE( 1.00000000000000 ), #142 );
#74 = DIMENSIONAL_EXPONENTS( 1.00000000000000, 0.000000000000000, 0.000000000000000, 0.000000000000000, 0.000000000000000, 0.000000000000000, 0.000000000000000 );
#76 = DIMENSIONAL_EXPONENTS( 0.000000000000000, 0.000000000000000, 0.000000000000000, 0.000000000000000, 0.000000000000000, 0.000000000000000, 0.000000000000000 );
#82 = SURFACE_STYLE_USAGE( .BOTH., #143 );
#83 = FACE_OUTER_BOUND( '', #144, .T. );
#84 = PLANE( '', #145 );
#85 = SURFACE_STYLE_USAGE( .BOTH., #146 );
#86 = FACE_OUTER_BOUND( '', #147, .T. );
#87 = FACE_OUTER_BOUND( '', #148, .T. );
#88 = CYLINDRICAL_SURFACE( '', #149, 4.20000000000000 );
#89 = SURFACE_STYLE_USAGE( .BOTH., #150 );
#90 = FACE_OUTER_BOUND( '', #151, .T. );
#91 = FACE_OUTER_BOUND( '', #152, .T. );
#92 = TOROIDAL_SURFACE( '', #153, 5.65714285710000, 0.342857142900000 );
#93 = SURFACE_STYLE_USAGE( .BOTH., #154 );
#94 = FACE_OUTER_BOUND( '', #155, .T. );
#95 = FACE_BOUND( '', #156, .T. );
#96 = PLANE( '', #157 );
#97 = SURFACE_STYLE_USAGE( .BOTH., #158 );
#98 = FACE_OUTER_BOUND( '', #159, .T. );
#99 = FACE_OUTER_BOUND( '', #160, .T. );
#100 = CYLINDRICAL_SURFACE( '', #161, 4.20000000000000 );
#101 = SURFACE_STYLE_USAGE( .BOTH., #162 );
#102 = FACE_OUTER_BOUND( '', #163, .T. );
#103 = PLANE( '', #164 );
#104 = SURFACE_STYLE_USAGE( .BOTH., #165 );
#105 = FACE_OUTER_BOUND( '', #166, .T. );
#106 = FACE_OUTER_BOUND( '', #167, .T. );
#107 = CYLINDRICAL_SURFACE( '', #168, 6.00000000000000 );
#108 = SURFACE_STYLE_USAGE( .BOTH., #169 );
#109 = FACE_OUTER_BOUND( '', #170, .T. );
#110 = FACE_OUTER_BOUND( '', #171, .T. );
#111 = TOROIDAL_SURFACE( '', #172, 5.65714285710000, 0.342857142900000 );
#112 = SURFACE_STYLE_USAGE( .BOTH., #173 );
#113 = FACE_OUTER_BOUND( '', #174, .T. );
#114 = FACE_OUTER_BOUND( '', #175, .T. );
#115 = CYLINDRICAL_SURFACE( '', #176, 4.20000000000000 );
#116 = SURFACE_STYLE_USAGE( .BOTH., #177 );
#117 = FACE_OUTER_BOUND( '', #178, .T. );
#118 = FACE_BOUND( '', #179, .T. );
#119 = PLANE( '', #180 );
#120 = SURFACE_STYLE_USAGE( .BOTH., #181 );
#121 = FACE_BOUND( '', #182, .T. );
#122 = FACE_OUTER_BOUND( '', #183, .T. );
#123 = PLANE( '', #184 );
#124 = SURFACE_STYLE_USAGE( .BOTH., #185 );
#125 = FACE_OUTER_BOUND( '', #186, .T. );
#126 = PLANE( '', #187 );
#127 = SURFACE_STYLE_USAGE( .BOTH., #188 );
#128 = FACE_BOUND( '', #189, .T. );
#129 = FACE_OUTER_BOUND( '', #190, .T. );
#130 = SPHERICAL_SURFACE( '', #191, 4.00000000000000 );
#131 = SURFACE_STYLE_USAGE( .BOTH., #192 );
#132 = FACE_BOUND( '', #193, .T. );
#133 = FACE_OUTER_BOUND( '', #194, .T. );
#134 = CONICAL_SURFACE( '', #195, 3.97322018200000, 0.115779430600000 );
#135 = PRODUCT_CONTEXT( '', #24, 'mechanical' );
#136 = PRODUCT_DEFINITION_FORMATION_WITH_SPECIFIED_SOURCE( ' ', 'NONE', #65, .NOT_KNOWN. );
#137 = CLOSED_SHELL( '', ( #64, #62, #44, #46, #56, #52, #50, #42, #58, #40, #48 ) );
#138 = ORIENTED_CLOSED_SHELL( '', *, #196, .T. );
#139 = CARTESIAN_POINT( '', ( 0.000000000000000, 0.000000000000000, 0.000000000000000 ) );
#140 = DIRECTION( '', ( 0.000000000000000, 0.000000000000000, 1.00000000000000 ) );
#141 = DIRECTION( '', ( 1.00000000000000, 0.000000000000000, 0.000000000000000 ) );
#142 =  ( LENGTH_UNIT(  )NAMED_UNIT( #74 )SI_UNIT( .MILLI., .METRE. ) );
#143 = SURFACE_SIDE_STYLE( '', ( #198 ) );
#144 = EDGE_LOOP( '', ( #199 ) );
#145 = AXIS2_PLACEMENT_3D( '', #200, #201, #202 );
#146 = SURFACE_SIDE_STYLE( '', ( #203 ) );
#147 = EDGE_LOOP( '', ( #204 ) );
#148 = EDGE_LOOP( '', ( #205 ) );
#149 = AXIS2_PLACEMENT_3D( '', #206, #207, #208 );
#150 = SURFACE_SIDE_STYLE( '', ( #209 ) );
#151 = EDGE_LOOP( '', ( #210 ) );
#152 = EDGE_LOOP( '', ( #211 ) );
#153 = AXIS2_PLACEMENT_3D( '', #212, #213, #214 );
#154 = SURFACE_SIDE_STYLE( '', ( #215 ) );
#155 = EDGE_LOOP( '', ( #216 ) );
#156 = EDGE_LOOP( '', ( #217 ) );
#157 = AXIS2_PLACEMENT_3D( '', #218, #219, #220 );
#158 = SURFACE_SIDE_STYLE( '', ( #221 ) );
#159 = EDGE_LOOP( '', ( #222 ) );
#160 = EDGE_LOOP( '', ( #223 ) );
#161 = AXIS2_PLACEMENT_3D( '', #224, #225, #226 );
#162 = SURFACE_SIDE_STYLE( '', ( #227 ) );
#163 = EDGE_LOOP( '', ( #228 ) );
#164 = AXIS2_PLACEMENT_3D( '', #229, #230, #231 );
#165 = SURFACE_SIDE_STYLE( '', ( #232 ) );
#166 = EDGE_LOOP( '', ( #233 ) );
#167 = EDGE_LOOP( '', ( #234 ) );
#168 = AXIS2_PLACEMENT_3D( '', #235, #236, #237 );
#169 = SURFACE_SIDE_STYLE( '', ( #238 ) );
#170 = EDGE_LOOP( '', ( #239 ) );
#171 = EDGE_LOOP( '', ( #240 ) );
#172 = AXIS2_PLACEMENT_3D( '', #241, #242, #243 );
#173 = SURFACE_SIDE_STYLE( '', ( #244 ) );
#174 = EDGE_LOOP( '', ( #245 ) );
#175 = EDGE_LOOP( '', ( #246 ) );
#176 = AXIS2_PLACEMENT_3D( '', #247, #248, #249 );
#177 = SURFACE_SIDE_STYLE( '', ( #250 ) );
#178 = EDGE_LOOP( '', ( #251 ) );
#179 = EDGE_LOOP( '', ( #252 ) );
#180 = AXIS2_PLACEMENT_3D( '', #253, #254, #255 );
#181 = SURFACE_SIDE_STYLE( '', ( #256 ) );
#182 = EDGE_LOOP( '', ( #257 ) );
#183 = EDGE_LOOP( '', ( #258 ) );
#184 = AXIS2_PLACEMENT_3D( '', #259, #260, #261 );
#185 = SURFACE_SIDE_STYLE( '', ( #262 ) );
#186 = EDGE_LOOP( '', ( #263 ) );
#187 = AXIS2_PLACEMENT_3D( '', #264, #265, #266 );
#188 = SURFACE_SIDE_STYLE( '', ( #267 ) );
#189 = VERTEX_LOOP( '', #268 );
#190 = EDGE_LOOP( '', ( #269 ) );
#191 = AXIS2_PLACEMENT_3D( '', #270, #271, #272 );
#192 = SURFACE_SIDE_STYLE( '', ( #273 ) );
#193 = EDGE_LOOP( '', ( #274 ) );
#194 = EDGE_LOOP( '', ( #275 ) );
#195 = AXIS2_PLACEMENT_3D( '', #276, #277, #278 );
#196 = CLOSED_SHELL( '', ( #54, #38, #60 ) );
#198 = SURFACE_STYLE_FILL_AREA( #279 );
#199 = ORIENTED_EDGE( '', *, *, #280, .F. );
#200 = CARTESIAN_POINT( '', ( 0.000000000000000, 6.50000000000000, 0.000000000000000 ) );
#201 = DIRECTION( '', ( 0.000000000000000, -1.00000000000000, -0.000000000000000 ) );
#202 = DIRECTION( '', ( 0.000000000000000, 0.000000000000000, -1.00000000000000 ) );
#203 = SURFACE_STYLE_FILL_AREA( #281 );
#204 = ORIENTED_EDGE( '', *, *, #282, .F. );
#205 = ORIENTED_EDGE( '', *, *, #283, .T. );
#206 = CARTESIAN_POINT( '', ( 0.000000000000000, 0.650000000000000, 0.000000000000000 ) );
#207 = DIRECTION( '', ( -0.000000000000000, 1.00000000000000, 0.000000000000000 ) );
#208 = DIRECTION( '', ( 0.000000000000000, 0.000000000000000, -1.00000000000000 ) );
#209 = SURFACE_STYLE_FILL_AREA( #284 );
#210 = ORIENTED_EDGE( '', *, *, #285, .T. );
#211 = ORIENTED_EDGE( '', *, *, #286, .F. );
#212 = CARTESIAN_POINT( '', ( 0.000000000000000, 0.342857142857142, 0.000000000000000 ) );
#213 = DIRECTION( '', ( 0.000000000000000, -1.00000000000000, -0.000000000000000 ) );
#214 = DIRECTION( '', ( 0.000000000000000, 0.000000000000000, -1.00000000000000 ) );
#215 = SURFACE_STYLE_FILL_AREA( #287 );
#216 = ORIENTED_EDGE( '', *, *, #288, .T. );
#217 = ORIENTED_EDGE( '', *, *, #289, .T. );
#218 = CARTESIAN_POINT( '', ( 2.80000000000000, 12.3500000000000, 0.000000000000000 ) );
#219 = DIRECTION( '', ( 0.000000000000000, -1.00000000000000, -0.000000000000000 ) );
#220 = DIRECTION( '', ( 0.000000000000000, 0.000000000000000, -1.00000000000000 ) );
#221 = SURFACE_STYLE_FILL_AREA( #290 );
#222 = ORIENTED_EDGE( '', *, *, #291, .F. );
#223 = ORIENTED_EDGE( '', *, *, #288, .F. );
#224 = CARTESIAN_POINT( '', ( 0.000000000000000, 0.650000000000000, 0.000000000000000 ) );
#225 = DIRECTION( '', ( -0.000000000000000, 1.00000000000000, 0.000000000000000 ) );
#226 = DIRECTION( '', ( 0.000000000000000, 0.000000000000000, -1.00000000000000 ) );
#227 = SURFACE_STYLE_FILL_AREA( #292 );
#228 = ORIENTED_EDGE( '', *, *, #282, .T. );
#229 = CARTESIAN_POINT( '', ( -4.20000000000000, 0.650000000000000, 5.14351655641888E-16 ) );
#230 = DIRECTION( '', ( 0.000000000000000, 1.00000000000000, 0.000000000000000 ) );
#231 = DIRECTION( '', ( 0.000000000000000, -0.000000000000000, 1.00000000000000 ) );
#232 = SURFACE_STYLE_FILL_AREA( #293 );
#233 = ORIENTED_EDGE( '', *, *, #285, .F. );
#234 = ORIENTED_EDGE( '', *, *, #294, .T. );
#235 = CARTESIAN_POINT( '', ( 0.000000000000000, 0.650000000000000, 0.000000000000000 ) );
#236 = DIRECTION( '', ( -0.000000000000000, 1.00000000000000, 0.000000000000000 ) );
#237 = DIRECTION( '', ( 0.000000000000000, 0.000000000000000, -1.00000000000000 ) );
#238 = SURFACE_STYLE_FILL_AREA( #295 );
#239 = ORIENTED_EDGE( '', *, *, #296, .T. );
#240 = ORIENTED_EDGE( '', *, *, #294, .F. );
#241 = CARTESIAN_POINT( '', ( 0.000000000000000, 12.6571428571429, 0.000000000000000 ) );
#242 = DIRECTION( '', ( 0.000000000000000, -1.00000000000000, -0.000000000000000 ) );
#243 = DIRECTION( '', ( 0.000000000000000, 0.000000000000000, -1.00000000000000 ) );
#244 = SURFACE_STYLE_FILL_AREA( #297 );
#245 = ORIENTED_EDGE( '', *, *, #298, .F. );
#246 = ORIENTED_EDGE( '', *, *, #280, .T. );
#247 = CARTESIAN_POINT( '', ( 0.000000000000000, 0.650000000000000, 0.000000000000000 ) );
#248 = DIRECTION( '', ( -0.000000000000000, 1.00000000000000, 0.000000000000000 ) );
#249 = DIRECTION( '', ( 0.000000000000000, 0.000000000000000, -1.00000000000000 ) );
#250 = SURFACE_STYLE_FILL_AREA( #299 );
#251 = ORIENTED_EDGE( '', *, *, #296, .F. );
#252 = ORIENTED_EDGE( '', *, *, #291, .T. );
#253 = CARTESIAN_POINT( '', ( -4.20000000000000, 13.0000000000000, 5.14351655641888E-16 ) );
#254 = DIRECTION( '', ( 0.000000000000000, -1.00000000000000, -0.000000000000000 ) );
#255 = DIRECTION( '', ( 0.000000000000000, 0.000000000000000, -1.00000000000000 ) );
#256 = SURFACE_STYLE_FILL_AREA( #300 );
#257 = ORIENTED_EDGE( '', *, *, #283, .F. );
#258 = ORIENTED_EDGE( '', *, *, #286, .T. );
#259 = CARTESIAN_POINT( '', ( -5.65714285714286, -2.71050543121376E-16, 6.92800189231931E-16 ) );
#260 = DIRECTION( '', ( 0.000000000000000, 1.00000000000000, 0.000000000000000 ) );
#261 = DIRECTION( '', ( 0.000000000000000, -0.000000000000000, 1.00000000000000 ) );
#262 = SURFACE_STYLE_FILL_AREA( #301 );
#263 = ORIENTED_EDGE( '', *, *, #298, .T. );
#264 = CARTESIAN_POINT( '', ( 4.80000000000000, 11.7000000000000, 0.000000000000000 ) );
#265 = DIRECTION( '', ( 0.000000000000000, 1.00000000000000, 0.000000000000000 ) );
#266 = DIRECTION( '', ( 0.000000000000000, -0.000000000000000, 1.00000000000000 ) );
#267 = SURFACE_STYLE_FILL_AREA( #302 );
#268 = VERTEX_POINT( '', #303 );
#269 = ORIENTED_EDGE( '', *, *, #304, .F. );
#270 = CARTESIAN_POINT( '', ( -7.15573433840433E-15, 22.9000000000000, 0.000000000000000 ) );
#271 = DIRECTION( '', ( 0.000000000000000, -1.00000000000000, 0.000000000000000 ) );
#272 = DIRECTION( '', ( 1.00000000000000, 0.000000000000000, 0.000000000000000 ) );
#273 = SURFACE_STYLE_FILL_AREA( #305 );
#274 = ORIENTED_EDGE( '', *, *, #289, .F. );
#275 = ORIENTED_EDGE( '', *, *, #304, .T. );
#276 = CARTESIAN_POINT( '', ( 0.000000000000000, 22.4379162568220, 0.000000000000000 ) );
#277 = DIRECTION( '', ( -0.000000000000000, 1.00000000000000, 0.000000000000000 ) );
#278 = DIRECTION( '', ( 0.000000000000000, -0.000000000000000, 1.00000000000000 ) );
#279 = FILL_AREA_STYLE( '', ( #306 ) );
#280 = EDGE_CURVE( '', #307, #307, #308, .T. );
#281 = FILL_AREA_STYLE( '', ( #309 ) );
#282 = EDGE_CURVE( '', #310, #310, #311, .T. );
#283 = EDGE_CURVE( '', #312, #312, #313, .T. );
#284 = FILL_AREA_STYLE( '', ( #314 ) );
#285 = EDGE_CURVE( '', #315, #315, #316, .T. );
#286 = EDGE_CURVE( '', #317, #317, #318, .T. );
#287 = FILL_AREA_STYLE( '', ( #319 ) );
#288 = EDGE_CURVE( '', #320, #320, #321, .F. );
#289 = EDGE_CURVE( '', #322, #322, #323, .T. );
#290 = FILL_AREA_STYLE( '', ( #324 ) );
#291 = EDGE_CURVE( '', #325, #325, #326, .T. );
#292 = FILL_AREA_STYLE( '', ( #327 ) );
#293 = FILL_AREA_STYLE( '', ( #328 ) );
#294 = EDGE_CURVE( '', #329, #329, #330, .T. );
#295 = FILL_AREA_STYLE( '', ( #331 ) );
#296 = EDGE_CURVE( '', #332, #332, #333, .T. );
#297 = FILL_AREA_STYLE( '', ( #334 ) );
#298 = EDGE_CURVE( '', #335, #335, #336, .F. );
#299 = FILL_AREA_STYLE( '', ( #337 ) );
#300 = FILL_AREA_STYLE( '', ( #338 ) );
#301 = FILL_AREA_STYLE( '', ( #339 ) );
#302 = FILL_AREA_STYLE( '', ( #340 ) );
#303 = CARTESIAN_POINT( '', ( -6.91080497857486E-15, 26.9000000000000, 0.000000000000000 ) );
#304 = EDGE_CURVE( '', #341, #341, #342, .T. );
#305 = FILL_AREA_STYLE( '', ( #343 ) );
#306 = FILL_AREA_STYLE_COLOUR( '', #344 );
#307 = VERTEX_POINT( '', #345 );
#308 = CIRCLE( '', #346, 4.20000000000000 );
#309 = FILL_AREA_STYLE_COLOUR( '', #347 );
#310 = VERTEX_POINT( '', #348 );
#311 = CIRCLE( '', #349, 4.20000000000000 );
#312 = VERTEX_POINT( '', #350 );
#313 = CIRCLE( '', #351, 4.20000000000000 );
#314 = FILL_AREA_STYLE_COLOUR( '', #352 );
#315 = VERTEX_POINT( '', #353 );
#316 = CIRCLE( '', #354, 6.00000000000000 );
#317 = VERTEX_POINT( '', #355 );
#318 = CIRCLE( '', #356, 5.65714285710000 );
#319 = FILL_AREA_STYLE_COLOUR( '', #357 );
#320 = VERTEX_POINT( '', #358 );
#321 = CIRCLE( '', #359, 4.20000000000000 );
#322 = VERTEX_POINT( '', #360 );
#323 = CIRCLE( '', #361, 2.80000000000000 );
#324 = FILL_AREA_STYLE_COLOUR( '', #362 );
#325 = VERTEX_POINT( '', #363 );
#326 = CIRCLE( '', #364, 4.20000000000000 );
#327 = FILL_AREA_STYLE_COLOUR( '', #365 );
#328 = FILL_AREA_STYLE_COLOUR( '', #366 );
#329 = VERTEX_POINT( '', #367 );
#330 = CIRCLE( '', #368, 6.00000000000000 );
#331 = FILL_AREA_STYLE_COLOUR( '', #369 );
#332 = VERTEX_POINT( '', #370 );
#333 = CIRCLE( '', #371, 5.65714285710000 );
#334 = FILL_AREA_STYLE_COLOUR( '', #372 );
#335 = VERTEX_POINT( '', #373 );
#336 = CIRCLE( '', #374, 4.20000000000000 );
#337 = FILL_AREA_STYLE_COLOUR( '', #375 );
#338 = FILL_AREA_STYLE_COLOUR( '', #376 );
#339 = FILL_AREA_STYLE_COLOUR( '', #377 );
#340 = FILL_AREA_STYLE_COLOUR( '', #378 );
#341 = VERTEX_POINT( '', #379 );
#342 = CIRCLE( '', #380, 3.97322018200000 );
#343 = FILL_AREA_STYLE_COLOUR( '', #381 );
#344 = COLOUR_RGB( '', 0.689999997600000, 0.689999997600000, 0.689999997600000 );
#345 = CARTESIAN_POINT( '', ( 0.000000000000000, 6.50000000000000, -4.20000000000000 ) );
#346 = AXIS2_PLACEMENT_3D( '', #382, #383, #384 );
#347 = COLOUR_RGB( '', 0.689999997600000, 0.689999997600000, 0.689999997600000 );
#348 = CARTESIAN_POINT( '', ( 0.000000000000000, 0.650000000000000, -4.20000000000000 ) );
#349 = AXIS2_PLACEMENT_3D( '', #385, #386, #387 );
#350 = CARTESIAN_POINT( '', ( 0.000000000000000, 0.000000000000000, -4.20000000000000 ) );
#351 = AXIS2_PLACEMENT_3D( '', #388, #389, #390 );
#352 = COLOUR_RGB( '', 0.689999997600000, 0.689999997600000, 0.689999997600000 );
#353 = CARTESIAN_POINT( '', ( 0.000000000000000, 0.342857142857143, -6.00000000000000 ) );
#354 = AXIS2_PLACEMENT_3D( '', #391, #392, #393 );
#355 = CARTESIAN_POINT( '', ( 0.000000000000000, -5.42101086242752E-16, -5.65714285714286 ) );
#356 = AXIS2_PLACEMENT_3D( '', #394, #395, #396 );
#357 = COLOUR_RGB( '', 0.689999997600000, 0.689999997600000, 0.689999997600000 );
#358 = CARTESIAN_POINT( '', ( 0.000000000000000, 12.3500000000000, -4.20000000000000 ) );
#359 = AXIS2_PLACEMENT_3D( '', #397, #398, #399 );
#360 = CARTESIAN_POINT( '', ( 0.000000000000000, 12.3500000000000, -2.80000000000000 ) );
#361 = AXIS2_PLACEMENT_3D( '', #400, #401, #402 );
#362 = COLOUR_RGB( '', 0.689999997600000, 0.689999997600000, 0.689999997600000 );
#363 = CARTESIAN_POINT( '', ( 0.000000000000000, 13.0000000000000, -4.20000000000000 ) );
#364 = AXIS2_PLACEMENT_3D( '', #403, #404, #405 );
#365 = COLOUR_RGB( '', 0.689999997600000, 0.689999997600000, 0.689999997600000 );
#366 = COLOUR_RGB( '', 0.689999997600000, 0.689999997600000, 0.689999997600000 );
#367 = CARTESIAN_POINT( '', ( 0.000000000000000, 12.6571428571429, -6.00000000000000 ) );
#368 = AXIS2_PLACEMENT_3D( '', #406, #407, #408 );
#369 = COLOUR_RGB( '', 0.689999997600000, 0.689999997600000, 0.689999997600000 );
#370 = CARTESIAN_POINT( '', ( 0.000000000000000, 13.0000000000000, -5.65714285714286 ) );
#371 = AXIS2_PLACEMENT_3D( '', #409, #410, #411 );
#372 = COLOUR_RGB( '', 0.689999997600000, 0.689999997600000, 0.689999997600000 );
#373 = CARTESIAN_POINT( '', ( 0.000000000000000, 11.7000000000000, 4.20000000000000 ) );
#374 = AXIS2_PLACEMENT_3D( '', #412, #413, #414 );
#375 = COLOUR_RGB( '', 0.689999997600000, 0.689999997600000, 0.689999997600000 );
#376 = COLOUR_RGB( '', 0.689999997600000, 0.689999997600000, 0.689999997600000 );
#377 = COLOUR_RGB( '', 0.689999997600000, 0.689999997600000, 0.689999997600000 );
#378 = COLOUR_RGB( '', 0.689999997600000, 0.689999997600000, 0.689999997600000 );
#379 = CARTESIAN_POINT( '', ( 0.000000000000000, 22.4379162568220, -3.97322018195451 ) );
#380 = AXIS2_PLACEMENT_3D( '', #415, #416, #417 );
#381 = COLOUR_RGB( '', 0.689999997600000, 0.689999997600000, 0.689999997600000 );
#382 = CARTESIAN_POINT( '', ( 0.000000000000000, 6.50000000000000, 0.000000000000000 ) );
#383 = DIRECTION( '', ( 0.000000000000000, -1.00000000000000, -0.000000000000000 ) );
#384 = DIRECTION( '', ( 0.000000000000000, 0.000000000000000, -1.00000000000000 ) );
#385 = CARTESIAN_POINT( '', ( 0.000000000000000, 0.650000000000000, 0.000000000000000 ) );
#386 = DIRECTION( '', ( 0.000000000000000, -1.00000000000000, -0.000000000000000 ) );
#387 = DIRECTION( '', ( 0.000000000000000, 0.000000000000000, -1.00000000000000 ) );
#388 = CARTESIAN_POINT( '', ( 0.000000000000000, 0.000000000000000, 0.000000000000000 ) );
#389 = DIRECTION( '', ( 0.000000000000000, -1.00000000000000, -0.000000000000000 ) );
#390 = DIRECTION( '', ( 0.000000000000000, 0.000000000000000, -1.00000000000000 ) );
#391 = CARTESIAN_POINT( '', ( 0.000000000000000, 0.342857142857143, 0.000000000000000 ) );
#392 = DIRECTION( '', ( 0.000000000000000, -1.00000000000000, -0.000000000000000 ) );
#393 = DIRECTION( '', ( 0.000000000000000, 0.000000000000000, -1.00000000000000 ) );
#394 = CARTESIAN_POINT( '', ( 0.000000000000000, -5.42101086242752E-16, 0.000000000000000 ) );
#395 = DIRECTION( '', ( 0.000000000000000, -1.00000000000000, -0.000000000000000 ) );
#396 = DIRECTION( '', ( 0.000000000000000, 0.000000000000000, -1.00000000000000 ) );
#397 = CARTESIAN_POINT( '', ( 0.000000000000000, 12.3500000000000, 0.000000000000000 ) );
#398 = DIRECTION( '', ( 0.000000000000000, -1.00000000000000, -0.000000000000000 ) );
#399 = DIRECTION( '', ( 0.000000000000000, 0.000000000000000, -1.00000000000000 ) );
#400 = CARTESIAN_POINT( '', ( 0.000000000000000, 12.3500000000000, 0.000000000000000 ) );
#401 = DIRECTION( '', ( 0.000000000000000, -1.00000000000000, -0.000000000000000 ) );
#402 = DIRECTION( '', ( 0.000000000000000, 0.000000000000000, -1.00000000000000 ) );
#403 = CARTESIAN_POINT( '', ( 0.000000000000000, 13.0000000000000, 0.000000000000000 ) );
#404 = DIRECTION( '', ( 0.000000000000000, -1.00000000000000, -0.000000000000000 ) );
#405 = DIRECTION( '', ( 0.000000000000000, 0.000000000000000, -1.00000000000000 ) );
#406 = CARTESIAN_POINT( '', ( 0.000000000000000, 12.6571428571429, 0.000000000000000 ) );
#407 = DIRECTION( '', ( 0.000000000000000, -1.00000000000000, -0.000000000000000 ) );
#408 = DIRECTION( '', ( 0.000000000000000, 0.000000000000000, -1.00000000000000 ) );
#409 = CARTESIAN_POINT( '', ( 0.000000000000000, 13.0000000000000, 0.000000000000000 ) );
#410 = DIRECTION( '', ( 0.000000000000000, -1.00000000000000, -0.000000000000000 ) );
#411 = DIRECTION( '', ( 0.000000000000000, 0.000000000000000, -1.00000000000000 ) );
#412 = CARTESIAN_POINT( '', ( 0.000000000000000, 11.7000000000000, 0.000000000000000 ) );
#413 = DIRECTION( '', ( 0.000000000000000, 1.00000000000000, 0.000000000000000 ) );
#414 = DIRECTION( '', ( 0.000000000000000, -0.000000000000000, 1.00000000000000 ) );
#415 = CARTESIAN_POINT( '', ( 0.000000000000000, 22.4379162568220, 0.000000000000000 ) );
#416 = DIRECTION( '', ( 0.000000000000000, -1.00000000000000, -0.000000000000000 ) );
#417 = DIRECTION( '', ( 0.000000000000000, 0.000000000000000, -1.00000000000000 ) );
ENDSEC;
END-ISO-10303-21;
