ISO-10303-21;
HEADER;
FILE_DESCRIPTION( ( 'STEP AP214' ), '1' );
FILE_NAME( '//goodhand-server/Shared Folders/GoodHand Data/Kipp CAD/K0334/K0334.212_0.stp', '2020-12-03T09:01:09', ( '' ), ( '' ), ' ', 'PARTsolutions', ' ' );
FILE_SCHEMA( ( 'AUTOMOTIVE_DESIGN { 1 0 10303 214 1 1 1 1 }' ) );
ENDSEC;
DATA;
#1 = MECHANICAL_DESIGN_GEOMETRIC_PRESENTATION_REPRESENTATION( ' ', ( #10, #11, #12, #13, #14, #15, #16, #17, #18, #19, #20 ), #6 );
#2 = PRODUCT_DEFINITION_CONTEXT( '', #21, 'design' );
#3 = APPLICATION_PROTOCOL_DEFINITION( 'international standard', 'automotive_design', 2001, #21 );
#4 = PRODUCT_CATEGORY_RELATIONSHIP( 'NONE', 'NONE', #22, #23 );
#5 = SHAPE_DEFINITION_REPRESENTATION( #24, #25 );
#6 =  ( GEOMETRIC_REPRESENTATION_CONTEXT( 3 )GLOBAL_UNCERTAINTY_ASSIGNED_CONTEXT( ( #28 ) )GLOBAL_UNIT_ASSIGNED_CONTEXT( ( #30, #31, #32 ) )REPRESENTATION_CONTEXT( 'NONE', 'WORKSPACE' ) );
#10 = STYLED_ITEM( '', ( #34 ), #35 );
#11 = STYLED_ITEM( '', ( #36 ), #37 );
#12 = STYLED_ITEM( '', ( #38 ), #39 );
#13 = STYLED_ITEM( '', ( #40 ), #41 );
#14 = STYLED_ITEM( '', ( #42 ), #43 );
#15 = STYLED_ITEM( '', ( #44 ), #45 );
#16 = STYLED_ITEM( '', ( #46 ), #47 );
#17 = STYLED_ITEM( '', ( #48 ), #49 );
#18 = STYLED_ITEM( '', ( #50 ), #51 );
#19 = STYLED_ITEM( '', ( #52 ), #53 );
#20 = STYLED_ITEM( '', ( #54 ), #55 );
#21 = APPLICATION_CONTEXT( 'core data for automotive mechanical design processes' );
#22 = PRODUCT_CATEGORY( 'part', 'NONE' );
#23 = PRODUCT_RELATED_PRODUCT_CATEGORY( 'detail', ' ', ( #56 ) );
#24 = PRODUCT_DEFINITION_SHAPE( 'NONE', 'NONE', #57 );
#25 = ADVANCED_BREP_SHAPE_REPRESENTATION( '_K0334.212_0', ( #58, #59 ), #6 );
#28 = UNCERTAINTY_MEASURE_WITH_UNIT( LENGTH_MEASURE( 0.00100000000000000 ), #30, '', '' );
#30 =  ( CONVERSION_BASED_UNIT( 'MILLIMETRE', #62 )LENGTH_UNIT(  )NAMED_UNIT( #65 ) );
#31 =  ( NAMED_UNIT( #67 )PLANE_ANGLE_UNIT(  )SI_UNIT( $, .RADIAN. ) );
#32 =  ( NAMED_UNIT( #67 )SI_UNIT( $, .STERADIAN. )SOLID_ANGLE_UNIT(  ) );
#34 = PRESENTATION_STYLE_ASSIGNMENT( ( #73 ) );
#35 = ADVANCED_FACE( '', ( #74, #75 ), #76, .F. );
#36 = PRESENTATION_STYLE_ASSIGNMENT( ( #77 ) );
#37 = ADVANCED_FACE( '', ( #78, #79 ), #80, .T. );
#38 = PRESENTATION_STYLE_ASSIGNMENT( ( #81 ) );
#39 = ADVANCED_FACE( '', ( #82, #83 ), #84, .T. );
#40 = PRESENTATION_STYLE_ASSIGNMENT( ( #85 ) );
#41 = ADVANCED_FACE( '', ( #86, #87 ), #88, .F. );
#42 = PRESENTATION_STYLE_ASSIGNMENT( ( #89 ) );
#43 = ADVANCED_FACE( '', ( #90, #91 ), #92, .F. );
#44 = PRESENTATION_STYLE_ASSIGNMENT( ( #93 ) );
#45 = ADVANCED_FACE( '', ( #94, #95 ), #96, .T. );
#46 = PRESENTATION_STYLE_ASSIGNMENT( ( #97 ) );
#47 = ADVANCED_FACE( '', ( #98, #99 ), #100, .T. );
#48 = PRESENTATION_STYLE_ASSIGNMENT( ( #101 ) );
#49 = ADVANCED_FACE( '', ( #102, #103 ), #104, .F. );
#50 = PRESENTATION_STYLE_ASSIGNMENT( ( #105 ) );
#51 = ADVANCED_FACE( '', ( #106 ), #107, .T. );
#52 = PRESENTATION_STYLE_ASSIGNMENT( ( #108 ) );
#53 = ADVANCED_FACE( '', ( #109, #110 ), #111, .T. );
#54 = PRESENTATION_STYLE_ASSIGNMENT( ( #112 ) );
#55 = ADVANCED_FACE( '', ( #113 ), #114, .F. );
#56 = PRODUCT( '_K0334.212_0', '_K0334.212_0', 'PART-_K0334.212_0-DESC', ( #115 ) );
#57 = PRODUCT_DEFINITION( 'NONE', 'NONE', #116, #2 );
#58 = BREP_WITH_VOIDS( '_K0334.212_0', #117, ( #118 ) );
#59 = AXIS2_PLACEMENT_3D( '', #119, #120, #121 );
#62 = LENGTH_MEASURE_WITH_UNIT( LENGTH_MEASURE( 1.00000000000000 ), #122 );
#65 = DIMENSIONAL_EXPONENTS( 1.00000000000000, 0.000000000000000, 0.000000000000000, 0.000000000000000, 0.000000000000000, 0.000000000000000, 0.000000000000000 );
#67 = DIMENSIONAL_EXPONENTS( 0.000000000000000, 0.000000000000000, 0.000000000000000, 0.000000000000000, 0.000000000000000, 0.000000000000000, 0.000000000000000 );
#73 = SURFACE_STYLE_USAGE( .BOTH., #123 );
#74 = FACE_OUTER_BOUND( '', #124, .T. );
#75 = FACE_BOUND( '', #125, .T. );
#76 = PLANE( '', #126 );
#77 = SURFACE_STYLE_USAGE( .BOTH., #127 );
#78 = FACE_OUTER_BOUND( '', #128, .T. );
#79 = FACE_OUTER_BOUND( '', #129, .T. );
#80 = CYLINDRICAL_SURFACE( '', #130, 6.00000000000000 );
#81 = SURFACE_STYLE_USAGE( .BOTH., #131 );
#82 = FACE_BOUND( '', #132, .T. );
#83 = FACE_OUTER_BOUND( '', #133, .T. );
#84 = SPHERICAL_SURFACE( '', #134, 5.00000000000000 );
#85 = SURFACE_STYLE_USAGE( .BOTH., #135 );
#86 = FACE_BOUND( '', #136, .T. );
#87 = FACE_OUTER_BOUND( '', #137, .T. );
#88 = PLANE( '', #138 );
#89 = SURFACE_STYLE_USAGE( .BOTH., #139 );
#90 = FACE_OUTER_BOUND( '', #140, .T. );
#91 = FACE_OUTER_BOUND( '', #141, .T. );
#92 = CYLINDRICAL_SURFACE( '', #142, 4.99000000000000 );
#93 = SURFACE_STYLE_USAGE( .BOTH., #143 );
#94 = FACE_OUTER_BOUND( '', #144, .T. );
#95 = FACE_OUTER_BOUND( '', #145, .T. );
#96 = CYLINDRICAL_SURFACE( '', #146, 7.00000000000000 );
#97 = SURFACE_STYLE_USAGE( .BOTH., #147 );
#98 = FACE_OUTER_BOUND( '', #148, .T. );
#99 = FACE_BOUND( '', #149, .T. );
#100 = CONICAL_SURFACE( '', #150, 5.82679491920000, 0.523598775600000 );
#101 = SURFACE_STYLE_USAGE( .BOTH., #151 );
#102 = FACE_OUTER_BOUND( '', #152, .T. );
#103 = FACE_OUTER_BOUND( '', #153, .T. );
#104 = CYLINDRICAL_SURFACE( '', #154, 4.99000000000000 );
#105 = SURFACE_STYLE_USAGE( .BOTH., #155 );
#106 = FACE_OUTER_BOUND( '', #156, .T. );
#107 = PLANE( '', #157 );
#108 = SURFACE_STYLE_USAGE( .BOTH., #158 );
#109 = FACE_BOUND( '', #159, .T. );
#110 = FACE_OUTER_BOUND( '', #160, .T. );
#111 = SPHERICAL_SURFACE( '', #161, 5.00000000000000 );
#112 = SURFACE_STYLE_USAGE( .BOTH., #162 );
#113 = FACE_OUTER_BOUND( '', #163, .T. );
#114 = PLANE( '', #164 );
#115 = PRODUCT_CONTEXT( '', #21, 'mechanical' );
#116 = PRODUCT_DEFINITION_FORMATION_WITH_SPECIFIED_SOURCE( ' ', 'NONE', #56, .NOT_KNOWN. );
#117 = CLOSED_SHELL( '', ( #43, #41, #45, #35, #37, #47, #55, #39 ) );
#118 = ORIENTED_CLOSED_SHELL( '', *, #165, .T. );
#119 = CARTESIAN_POINT( '', ( 0.000000000000000, 0.000000000000000, 0.000000000000000 ) );
#120 = DIRECTION( '', ( 0.000000000000000, 0.000000000000000, 1.00000000000000 ) );
#121 = DIRECTION( '', ( 1.00000000000000, 0.000000000000000, 0.000000000000000 ) );
#122 =  ( LENGTH_UNIT(  )NAMED_UNIT( #65 )SI_UNIT( .MILLI., .METRE. ) );
#123 = SURFACE_SIDE_STYLE( '', ( #167 ) );
#124 = EDGE_LOOP( '', ( #168 ) );
#125 = EDGE_LOOP( '', ( #169 ) );
#126 = AXIS2_PLACEMENT_3D( '', #170, #171, #172 );
#127 = SURFACE_SIDE_STYLE( '', ( #173 ) );
#128 = EDGE_LOOP( '', ( #174 ) );
#129 = EDGE_LOOP( '', ( #175 ) );
#130 = AXIS2_PLACEMENT_3D( '', #176, #177, #178 );
#131 = SURFACE_SIDE_STYLE( '', ( #179 ) );
#132 = VERTEX_LOOP( '', #180 );
#133 = EDGE_LOOP( '', ( #181 ) );
#134 = AXIS2_PLACEMENT_3D( '', #182, #183, #184 );
#135 = SURFACE_SIDE_STYLE( '', ( #185 ) );
#136 = EDGE_LOOP( '', ( #186 ) );
#137 = EDGE_LOOP( '', ( #187 ) );
#138 = AXIS2_PLACEMENT_3D( '', #188, #189, #190 );
#139 = SURFACE_SIDE_STYLE( '', ( #191 ) );
#140 = EDGE_LOOP( '', ( #192 ) );
#141 = EDGE_LOOP( '', ( #193 ) );
#142 = AXIS2_PLACEMENT_3D( '', #194, #195, #196 );
#143 = SURFACE_SIDE_STYLE( '', ( #197 ) );
#144 = EDGE_LOOP( '', ( #198 ) );
#145 = EDGE_LOOP( '', ( #199 ) );
#146 = AXIS2_PLACEMENT_3D( '', #200, #201, #202 );
#147 = SURFACE_SIDE_STYLE( '', ( #203 ) );
#148 = EDGE_LOOP( '', ( #204 ) );
#149 = EDGE_LOOP( '', ( #205 ) );
#150 = AXIS2_PLACEMENT_3D( '', #206, #207, #208 );
#151 = SURFACE_SIDE_STYLE( '', ( #209 ) );
#152 = EDGE_LOOP( '', ( #210 ) );
#153 = EDGE_LOOP( '', ( #211 ) );
#154 = AXIS2_PLACEMENT_3D( '', #212, #213, #214 );
#155 = SURFACE_SIDE_STYLE( '', ( #215 ) );
#156 = EDGE_LOOP( '', ( #216 ) );
#157 = AXIS2_PLACEMENT_3D( '', #217, #218, #219 );
#158 = SURFACE_SIDE_STYLE( '', ( #220 ) );
#159 = VERTEX_LOOP( '', #221 );
#160 = EDGE_LOOP( '', ( #222 ) );
#161 = AXIS2_PLACEMENT_3D( '', #223, #224, #225 );
#162 = SURFACE_SIDE_STYLE( '', ( #226 ) );
#163 = EDGE_LOOP( '', ( #227 ) );
#164 = AXIS2_PLACEMENT_3D( '', #228, #229, #230 );
#165 = CLOSED_SHELL( '', ( #51, #49, #53 ) );
#167 = SURFACE_STYLE_FILL_AREA( #231 );
#168 = ORIENTED_EDGE( '', *, *, #232, .F. );
#169 = ORIENTED_EDGE( '', *, *, #233, .T. );
#170 = CARTESIAN_POINT( '', ( -6.00000000000001, 13.5000000000000, 0.000000000000000 ) );
#171 = DIRECTION( '', ( 6.12323399573677E-17, 1.00000000000000, -0.000000000000000 ) );
#172 = DIRECTION( '', ( -1.00000000000000, 6.12323399573677E-17, 0.000000000000000 ) );
#173 = SURFACE_STYLE_FILL_AREA( #234 );
#174 = ORIENTED_EDGE( '', *, *, #233, .F. );
#175 = ORIENTED_EDGE( '', *, *, #235, .T. );
#176 = CARTESIAN_POINT( '', ( 9.79717439317883E-16, 16.0000000000000, 0.000000000000000 ) );
#177 = DIRECTION( '', ( -6.12323399573677E-17, -1.00000000000000, 0.000000000000000 ) );
#178 = DIRECTION( '', ( -1.00000000000000, 6.12323399573677E-17, 0.000000000000000 ) );
#179 = SURFACE_STYLE_FILL_AREA( #236 );
#180 = VERTEX_POINT( '', #237 );
#181 = ORIENTED_EDGE( '', *, *, #238, .T. );
#182 = CARTESIAN_POINT( '', ( 4.33680868994202E-16, 11.0000000000000, 0.000000000000000 ) );
#183 = DIRECTION( '', ( 0.000000000000000, -1.00000000000000, 0.000000000000000 ) );
#184 = DIRECTION( '', ( -1.00000000000000, 0.000000000000000, 0.000000000000000 ) );
#185 = SURFACE_STYLE_FILL_AREA( #239 );
#186 = ORIENTED_EDGE( '', *, *, #240, .F. );
#187 = ORIENTED_EDGE( '', *, *, #241, .T. );
#188 = CARTESIAN_POINT( '', ( -6.99999999999999, 16.0000000000000, 0.000000000000000 ) );
#189 = DIRECTION( '', ( -6.12323399573677E-17, -1.00000000000000, 0.000000000000000 ) );
#190 = DIRECTION( '', ( 1.00000000000000, -6.12323399573677E-17, 0.000000000000000 ) );
#191 = SURFACE_STYLE_FILL_AREA( #242 );
#192 = ORIENTED_EDGE( '', *, *, #238, .F. );
#193 = ORIENTED_EDGE( '', *, *, #240, .T. );
#194 = CARTESIAN_POINT( '', ( 0.000000000000000, 5.00000000000000, 0.000000000000000 ) );
#195 = DIRECTION( '', ( -0.000000000000000, 1.00000000000000, 0.000000000000000 ) );
#196 = DIRECTION( '', ( 0.000000000000000, 0.000000000000000, -1.00000000000000 ) );
#197 = SURFACE_STYLE_FILL_AREA( #243 );
#198 = ORIENTED_EDGE( '', *, *, #241, .F. );
#199 = ORIENTED_EDGE( '', *, *, #232, .T. );
#200 = CARTESIAN_POINT( '', ( 9.79717439317883E-16, 16.0000000000000, 0.000000000000000 ) );
#201 = DIRECTION( '', ( -6.12323399573677E-17, -1.00000000000000, 0.000000000000000 ) );
#202 = DIRECTION( '', ( -1.00000000000000, 6.12323399573677E-17, 0.000000000000000 ) );
#203 = SURFACE_STYLE_FILL_AREA( #244 );
#204 = ORIENTED_EDGE( '', *, *, #235, .F. );
#205 = ORIENTED_EDGE( '', *, *, #245, .T. );
#206 = CARTESIAN_POINT( '', ( 0.000000000000000, 0.000000000000000, 0.000000000000000 ) );
#207 = DIRECTION( '', ( 6.12323399573677E-17, 1.00000000000000, -0.000000000000000 ) );
#208 = DIRECTION( '', ( -1.00000000000000, 6.12323399573677E-17, 0.000000000000000 ) );
#209 = SURFACE_STYLE_FILL_AREA( #246 );
#210 = ORIENTED_EDGE( '', *, *, #247, .T. );
#211 = ORIENTED_EDGE( '', *, *, #248, .F. );
#212 = CARTESIAN_POINT( '', ( 0.000000000000000, 5.00000000000000, 0.000000000000000 ) );
#213 = DIRECTION( '', ( -0.000000000000000, 1.00000000000000, 0.000000000000000 ) );
#214 = DIRECTION( '', ( 0.000000000000000, 0.000000000000000, -1.00000000000000 ) );
#215 = SURFACE_STYLE_FILL_AREA( #249 );
#216 = ORIENTED_EDGE( '', *, *, #247, .F. );
#217 = CARTESIAN_POINT( '', ( 4.99000000000000, 5.00000000000000, 0.000000000000000 ) );
#218 = DIRECTION( '', ( 0.000000000000000, 1.00000000000000, 0.000000000000000 ) );
#219 = DIRECTION( '', ( 0.000000000000000, -0.000000000000000, 1.00000000000000 ) );
#220 = SURFACE_STYLE_FILL_AREA( #250 );
#221 = VERTEX_POINT( '', #251 );
#222 = ORIENTED_EDGE( '', *, *, #248, .T. );
#223 = CARTESIAN_POINT( '', ( 4.33680868994202E-16, 11.0000000000000, 0.000000000000000 ) );
#224 = DIRECTION( '', ( 0.000000000000000, -1.00000000000000, 0.000000000000000 ) );
#225 = DIRECTION( '', ( -1.00000000000000, 0.000000000000000, 0.000000000000000 ) );
#226 = SURFACE_STYLE_FILL_AREA( #252 );
#227 = ORIENTED_EDGE( '', *, *, #245, .F. );
#228 = CARTESIAN_POINT( '', ( 0.000000000000000, 0.000000000000000, 0.000000000000000 ) );
#229 = DIRECTION( '', ( 6.12323399573677E-17, 1.00000000000000, -0.000000000000000 ) );
#230 = DIRECTION( '', ( -1.00000000000000, 6.12323399573677E-17, 0.000000000000000 ) );
#231 = FILL_AREA_STYLE( '', ( #253 ) );
#232 = EDGE_CURVE( '', #254, #254, #255, .T. );
#233 = EDGE_CURVE( '', #256, #256, #257, .T. );
#234 = FILL_AREA_STYLE( '', ( #258 ) );
#235 = EDGE_CURVE( '', #259, #259, #260, .T. );
#236 = FILL_AREA_STYLE( '', ( #261 ) );
#237 = CARTESIAN_POINT( '', ( 1.27519169207363E-16, 16.0000000000000, 0.000000000000000 ) );
#238 = EDGE_CURVE( '', #262, #262, #263, .F. );
#239 = FILL_AREA_STYLE( '', ( #264 ) );
#240 = EDGE_CURVE( '', #265, #265, #266, .F. );
#241 = EDGE_CURVE( '', #267, #267, #268, .T. );
#242 = FILL_AREA_STYLE( '', ( #269 ) );
#243 = FILL_AREA_STYLE( '', ( #270 ) );
#244 = FILL_AREA_STYLE( '', ( #271 ) );
#245 = EDGE_CURVE( '', #272, #272, #273, .T. );
#246 = FILL_AREA_STYLE( '', ( #274 ) );
#247 = EDGE_CURVE( '', #275, #275, #276, .T. );
#248 = EDGE_CURVE( '', #277, #277, #278, .F. );
#249 = FILL_AREA_STYLE( '', ( #279 ) );
#250 = FILL_AREA_STYLE( '', ( #280 ) );
#251 = CARTESIAN_POINT( '', ( 1.27519169207363E-16, 6.00000000000000, 0.000000000000000 ) );
#252 = FILL_AREA_STYLE( '', ( #281 ) );
#253 = FILL_AREA_STYLE_COLOUR( '', #282 );
#254 = VERTEX_POINT( '', #283 );
#255 = CIRCLE( '', #284, 7.00000000000000 );
#256 = VERTEX_POINT( '', #285 );
#257 = CIRCLE( '', #286, 6.00000000000000 );
#258 = FILL_AREA_STYLE_COLOUR( '', #287 );
#259 = VERTEX_POINT( '', #288 );
#260 = CIRCLE( '', #289, 6.00000000000000 );
#261 = FILL_AREA_STYLE_COLOUR( '', #290 );
#262 = VERTEX_POINT( '', #291 );
#263 = CIRCLE( '', #292, 4.99000000000000 );
#264 = FILL_AREA_STYLE_COLOUR( '', #293 );
#265 = VERTEX_POINT( '', #294 );
#266 = CIRCLE( '', #295, 4.99000000000000 );
#267 = VERTEX_POINT( '', #296 );
#268 = CIRCLE( '', #297, 7.00000000000000 );
#269 = FILL_AREA_STYLE_COLOUR( '', #298 );
#270 = FILL_AREA_STYLE_COLOUR( '', #299 );
#271 = FILL_AREA_STYLE_COLOUR( '', #300 );
#272 = VERTEX_POINT( '', #301 );
#273 = CIRCLE( '', #302, 5.82679491920000 );
#274 = FILL_AREA_STYLE_COLOUR( '', #303 );
#275 = VERTEX_POINT( '', #304 );
#276 = CIRCLE( '', #305, 4.99000000000000 );
#277 = VERTEX_POINT( '', #306 );
#278 = CIRCLE( '', #307, 4.99000000000000 );
#279 = FILL_AREA_STYLE_COLOUR( '', #308 );
#280 = FILL_AREA_STYLE_COLOUR( '', #309 );
#281 = FILL_AREA_STYLE_COLOUR( '', #310 );
#282 = COLOUR_RGB( '', 0.689999997600000, 0.689999997600000, 0.689999997600000 );
#283 = CARTESIAN_POINT( '', ( -6.99999999999999, 13.5000000000000, 0.000000000000000 ) );
#284 = AXIS2_PLACEMENT_3D( '', #311, #312, #313 );
#285 = CARTESIAN_POINT( '', ( -6.00000000000001, 13.5000000000000, 0.000000000000000 ) );
#286 = AXIS2_PLACEMENT_3D( '', #314, #315, #316 );
#287 = COLOUR_RGB( '', 0.689999997600000, 0.689999997600000, 0.689999997600000 );
#288 = CARTESIAN_POINT( '', ( -6.00000000000001, 0.300000000000002, 0.000000000000000 ) );
#289 = AXIS2_PLACEMENT_3D( '', #317, #318, #319 );
#290 = COLOUR_RGB( '', 0.689999997600000, 0.689999997600000, 0.689999997600000 );
#291 = CARTESIAN_POINT( '', ( 0.000000000000000, 11.3160696125856, -4.99000000000000 ) );
#292 = AXIS2_PLACEMENT_3D( '', #320, #321, #322 );
#293 = COLOUR_RGB( '', 0.689999997600000, 0.689999997600000, 0.689999997600000 );
#294 = CARTESIAN_POINT( '', ( 4.99000000000000, 16.0000000000000, 0.000000000000000 ) );
#295 = AXIS2_PLACEMENT_3D( '', #323, #324, #325 );
#296 = CARTESIAN_POINT( '', ( -6.99999999999999, 16.0000000000000, 0.000000000000000 ) );
#297 = AXIS2_PLACEMENT_3D( '', #326, #327, #328 );
#298 = COLOUR_RGB( '', 0.689999997600000, 0.689999997600000, 0.689999997600000 );
#299 = COLOUR_RGB( '', 0.689999997600000, 0.689999997600000, 0.689999997600000 );
#300 = COLOUR_RGB( '', 0.689999997600000, 0.689999997600000, 0.689999997600000 );
#301 = CARTESIAN_POINT( '', ( -5.82679491924312, 3.56788287356957E-16, 0.000000000000000 ) );
#302 = AXIS2_PLACEMENT_3D( '', #329, #330, #331 );
#303 = COLOUR_RGB( '', 0.689999997600000, 0.689999997600000, 0.689999997600000 );
#304 = CARTESIAN_POINT( '', ( 0.000000000000000, 5.00000000000000, -4.99000000000000 ) );
#305 = AXIS2_PLACEMENT_3D( '', #332, #333, #334 );
#306 = CARTESIAN_POINT( '', ( 0.000000000000000, 10.6839303874144, 4.99000000000000 ) );
#307 = AXIS2_PLACEMENT_3D( '', #335, #336, #337 );
#308 = COLOUR_RGB( '', 0.689999997600000, 0.689999997600000, 0.689999997600000 );
#309 = COLOUR_RGB( '', 0.689999997600000, 0.689999997600000, 0.689999997600000 );
#310 = COLOUR_RGB( '', 0.689999997600000, 0.689999997600000, 0.689999997600000 );
#311 = CARTESIAN_POINT( '', ( 8.26636589424463E-16, 13.5000000000000, 0.000000000000000 ) );
#312 = DIRECTION( '', ( 6.12323399573677E-17, 1.00000000000000, -0.000000000000000 ) );
#313 = DIRECTION( '', ( -1.00000000000000, 6.12323399573677E-17, 0.000000000000000 ) );
#314 = CARTESIAN_POINT( '', ( 8.26636589424463E-16, 13.5000000000000, 0.000000000000000 ) );
#315 = DIRECTION( '', ( 6.12323399573677E-17, 1.00000000000000, -0.000000000000000 ) );
#316 = DIRECTION( '', ( -1.00000000000000, 6.12323399573677E-17, 0.000000000000000 ) );
#317 = CARTESIAN_POINT( '', ( 1.83697019872103E-17, 0.300000000000002, 0.000000000000000 ) );
#318 = DIRECTION( '', ( 6.12323399573677E-17, 1.00000000000000, -0.000000000000000 ) );
#319 = DIRECTION( '', ( -1.00000000000000, 6.12323399573677E-17, 0.000000000000000 ) );
#320 = CARTESIAN_POINT( '', ( 0.000000000000000, 11.3160696125856, 0.000000000000000 ) );
#321 = DIRECTION( '', ( 0.000000000000000, -1.00000000000000, -0.000000000000000 ) );
#322 = DIRECTION( '', ( 0.000000000000000, 0.000000000000000, -1.00000000000000 ) );
#323 = CARTESIAN_POINT( '', ( 0.000000000000000, 16.0000000000000, 0.000000000000000 ) );
#324 = DIRECTION( '', ( -6.12323399573677E-17, -1.00000000000000, 0.000000000000000 ) );
#325 = DIRECTION( '', ( 1.00000000000000, -6.12323399573677E-17, 0.000000000000000 ) );
#326 = CARTESIAN_POINT( '', ( 9.79717439317883E-16, 16.0000000000000, 0.000000000000000 ) );
#327 = DIRECTION( '', ( 6.12323399573677E-17, 1.00000000000000, -0.000000000000000 ) );
#328 = DIRECTION( '', ( -1.00000000000000, 6.12323399573677E-17, 0.000000000000000 ) );
#329 = CARTESIAN_POINT( '', ( 0.000000000000000, 0.000000000000000, 0.000000000000000 ) );
#330 = DIRECTION( '', ( 6.12323399573677E-17, 1.00000000000000, -0.000000000000000 ) );
#331 = DIRECTION( '', ( -1.00000000000000, 6.12323399573677E-17, 0.000000000000000 ) );
#332 = CARTESIAN_POINT( '', ( 0.000000000000000, 5.00000000000000, 0.000000000000000 ) );
#333 = DIRECTION( '', ( 0.000000000000000, -1.00000000000000, -0.000000000000000 ) );
#334 = DIRECTION( '', ( 0.000000000000000, 0.000000000000000, -1.00000000000000 ) );
#335 = CARTESIAN_POINT( '', ( 0.000000000000000, 10.6839303874144, 0.000000000000000 ) );
#336 = DIRECTION( '', ( 0.000000000000000, 1.00000000000000, 0.000000000000000 ) );
#337 = DIRECTION( '', ( 0.000000000000000, -0.000000000000000, 1.00000000000000 ) );
ENDSEC;
END-ISO-10303-21;
