ISO-10303-21;
HEADER;
FILE_DESCRIPTION( ( 'STEP AP214' ), '1' );
FILE_NAME( '//goodhand-server/Shared Folders/GoodHand Data/Kipp CAD/K0313/K0313.108__0_.stp', '2020-12-02T10:32:20', ( '' ), ( '' ), ' ', 'PARTsolutions', ' ' );
FILE_SCHEMA( ( 'AUTOMOTIVE_DESIGN { 1 0 10303 214 1 1 1 1 }' ) );
ENDSEC;
DATA;
#1 = MECHANICAL_DESIGN_GEOMETRIC_PRESENTATION_REPRESENTATION( ' ', ( #10, #11, #12, #13, #14, #15, #16, #17, #18, #19, #20 ), #6 );
#2 = PRODUCT_DEFINITION_CONTEXT( '', #21, 'design' );
#3 = APPLICATION_PROTOCOL_DEFINITION( 'international standard', 'automotive_design', 2001, #21 );
#4 = PRODUCT_CATEGORY_RELATIONSHIP( 'NONE', 'NONE', #22, #23 );
#5 = SHAPE_DEFINITION_REPRESENTATION( #24, #25 );
#6 =  ( GEOMETRIC_REPRESENTATION_CONTEXT( 3 )GLOBAL_UNCERTAINTY_ASSIGNED_CONTEXT( ( #28 ) )GLOBAL_UNIT_ASSIGNED_CONTEXT( ( #30, #31, #32 ) )REPRESENTATION_CONTEXT( 'NONE', 'WORKSPACE' ) );
#10 = STYLED_ITEM( '', ( #34 ), #35 );
#11 = STYLED_ITEM( '', ( #36 ), #37 );
#12 = STYLED_ITEM( '', ( #38 ), #39 );
#13 = STYLED_ITEM( '', ( #40 ), #41 );
#14 = STYLED_ITEM( '', ( #42 ), #43 );
#15 = STYLED_ITEM( '', ( #44 ), #45 );
#16 = STYLED_ITEM( '', ( #46 ), #47 );
#17 = STYLED_ITEM( '', ( #48 ), #49 );
#18 = STYLED_ITEM( '', ( #50 ), #51 );
#19 = STYLED_ITEM( '', ( #52 ), #53 );
#20 = STYLED_ITEM( '', ( #54 ), #55 );
#21 = APPLICATION_CONTEXT( 'core data for automotive mechanical design processes' );
#22 = PRODUCT_CATEGORY( 'part', 'NONE' );
#23 = PRODUCT_RELATED_PRODUCT_CATEGORY( 'detail', ' ', ( #56 ) );
#24 = PRODUCT_DEFINITION_SHAPE( 'NONE', 'NONE', #57 );
#25 = ADVANCED_BREP_SHAPE_REPRESENTATION( '_K0313.108_(0)', ( #58, #59 ), #6 );
#28 = UNCERTAINTY_MEASURE_WITH_UNIT( LENGTH_MEASURE( 0.00100000000000000 ), #30, '', '' );
#30 =  ( CONVERSION_BASED_UNIT( 'MILLIMETRE', #62 )LENGTH_UNIT(  )NAMED_UNIT( #65 ) );
#31 =  ( NAMED_UNIT( #67 )PLANE_ANGLE_UNIT(  )SI_UNIT( $, .RADIAN. ) );
#32 =  ( NAMED_UNIT( #67 )SI_UNIT( $, .STERADIAN. )SOLID_ANGLE_UNIT(  ) );
#34 = PRESENTATION_STYLE_ASSIGNMENT( ( #73 ) );
#35 = ADVANCED_FACE( '', ( #74 ), #75, .F. );
#36 = PRESENTATION_STYLE_ASSIGNMENT( ( #76 ) );
#37 = ADVANCED_FACE( '', ( #77, #78 ), #79, .T. );
#38 = PRESENTATION_STYLE_ASSIGNMENT( ( #80 ) );
#39 = ADVANCED_FACE( '', ( #81 ), #82, .T. );
#40 = PRESENTATION_STYLE_ASSIGNMENT( ( #83 ) );
#41 = ADVANCED_FACE( '', ( #84, #85 ), #86, .T. );
#42 = PRESENTATION_STYLE_ASSIGNMENT( ( #87 ) );
#43 = ADVANCED_FACE( '', ( #88 ), #89, .T. );
#44 = PRESENTATION_STYLE_ASSIGNMENT( ( #90 ) );
#45 = ADVANCED_FACE( '', ( #91 ), #92, .T. );
#46 = PRESENTATION_STYLE_ASSIGNMENT( ( #93 ) );
#47 = ADVANCED_FACE( '', ( #94 ), #95, .F. );
#48 = PRESENTATION_STYLE_ASSIGNMENT( ( #96 ) );
#49 = ADVANCED_FACE( '', ( #97 ), #98, .T. );
#50 = PRESENTATION_STYLE_ASSIGNMENT( ( #99 ) );
#51 = ADVANCED_FACE( '', ( #100, #101 ), #102, .T. );
#52 = PRESENTATION_STYLE_ASSIGNMENT( ( #103 ) );
#53 = ADVANCED_FACE( '', ( #104, #105 ), #106, .F. );
#54 = PRESENTATION_STYLE_ASSIGNMENT( ( #107 ) );
#55 = ADVANCED_FACE( '', ( #108 ), #109, .T. );
#56 = PRODUCT( '_K0313.108_(0)', '_K0313.108_(0)', 'PART-_K0313.108_(0)-DESC', ( #110 ) );
#57 = PRODUCT_DEFINITION( 'NONE', 'NONE', #111, #2 );
#58 = MANIFOLD_SOLID_BREP( '_K0313.108_(0)', #112 );
#59 = AXIS2_PLACEMENT_3D( '', #113, #114, #115 );
#62 = LENGTH_MEASURE_WITH_UNIT( LENGTH_MEASURE( 1.00000000000000 ), #116 );
#65 = DIMENSIONAL_EXPONENTS( 1.00000000000000, 0.000000000000000, 0.000000000000000, 0.000000000000000, 0.000000000000000, 0.000000000000000, 0.000000000000000 );
#67 = DIMENSIONAL_EXPONENTS( 0.000000000000000, 0.000000000000000, 0.000000000000000, 0.000000000000000, 0.000000000000000, 0.000000000000000, 0.000000000000000 );
#73 = SURFACE_STYLE_USAGE( .BOTH., #117 );
#74 = FACE_OUTER_BOUND( '', #118, .T. );
#75 = PLANE( '', #119 );
#76 = SURFACE_STYLE_USAGE( .BOTH., #120 );
#77 = FACE_BOUND( '', #121, .T. );
#78 = FACE_OUTER_BOUND( '', #122, .T. );
#79 = SPHERICAL_SURFACE( '', #123, 2.00000000000000 );
#80 = SURFACE_STYLE_USAGE( .BOTH., #124 );
#81 = FACE_OUTER_BOUND( '', #125, .T. );
#82 = PLANE( '', #126 );
#83 = SURFACE_STYLE_USAGE( .BOTH., #127 );
#84 = FACE_OUTER_BOUND( '', #128, .T. );
#85 = FACE_OUTER_BOUND( '', #129, .T. );
#86 = CYLINDRICAL_SURFACE( '', #130, 4.00000000000000 );
#87 = SURFACE_STYLE_USAGE( .BOTH., #131 );
#88 = FACE_OUTER_BOUND( '', #132, .T. );
#89 = PLANE( '', #133 );
#90 = SURFACE_STYLE_USAGE( .BOTH., #134 );
#91 = FACE_OUTER_BOUND( '', #135, .T. );
#92 = PLANE( '', #136 );
#93 = SURFACE_STYLE_USAGE( .BOTH., #137 );
#94 = FACE_OUTER_BOUND( '', #138, .T. );
#95 = PLANE( '', #139 );
#96 = SURFACE_STYLE_USAGE( .BOTH., #140 );
#97 = FACE_OUTER_BOUND( '', #141, .T. );
#98 = CONICAL_SURFACE( '', #142, 4.00000000000000, 0.785398163400000 );
#99 = SURFACE_STYLE_USAGE( .BOTH., #143 );
#100 = FACE_OUTER_BOUND( '', #144, .T. );
#101 = FACE_BOUND( '', #145, .T. );
#102 = CONICAL_SURFACE( '', #146, 3.23300000000000, 0.785398163400000 );
#103 = SURFACE_STYLE_USAGE( .BOTH., #147 );
#104 = FACE_OUTER_BOUND( '', #148, .T. );
#105 = FACE_BOUND( '', #149, .T. );
#106 = PLANE( '', #150 );
#107 = SURFACE_STYLE_USAGE( .BOTH., #151 );
#108 = FACE_OUTER_BOUND( '', #152, .T. );
#109 = CONICAL_SURFACE( '', #153, 4.00000000000000, 0.785398163400000 );
#110 = PRODUCT_CONTEXT( '', #21, 'mechanical' );
#111 = PRODUCT_DEFINITION_FORMATION_WITH_SPECIFIED_SOURCE( ' ', 'NONE', #56, .NOT_KNOWN. );
#112 = CLOSED_SHELL( '', ( #43, #45, #37, #47, #35, #49, #41, #55, #51, #53, #39 ) );
#113 = CARTESIAN_POINT( '', ( 0.000000000000000, 0.000000000000000, 0.000000000000000 ) );
#114 = DIRECTION( '', ( 0.000000000000000, 0.000000000000000, 1.00000000000000 ) );
#115 = DIRECTION( '', ( 1.00000000000000, 0.000000000000000, 0.000000000000000 ) );
#116 =  ( LENGTH_UNIT(  )NAMED_UNIT( #65 )SI_UNIT( .MILLI., .METRE. ) );
#117 = SURFACE_SIDE_STYLE( '', ( #155 ) );
#118 = EDGE_LOOP( '', ( #156, #157 ) );
#119 = AXIS2_PLACEMENT_3D( '', #158, #159, #160 );
#120 = SURFACE_SIDE_STYLE( '', ( #161 ) );
#121 = VERTEX_LOOP( '', #162 );
#122 = EDGE_LOOP( '', ( #163 ) );
#123 = AXIS2_PLACEMENT_3D( '', #164, #165, #166 );
#124 = SURFACE_SIDE_STYLE( '', ( #167 ) );
#125 = EDGE_LOOP( '', ( #168, #169, #170, #171, #172, #173 ) );
#126 = AXIS2_PLACEMENT_3D( '', #174, #175, #176 );
#127 = SURFACE_SIDE_STYLE( '', ( #177 ) );
#128 = EDGE_LOOP( '', ( #178, #179, #180, #181, #182, #183, #184, #185 ) );
#129 = EDGE_LOOP( '', ( #186 ) );
#130 = AXIS2_PLACEMENT_3D( '', #187, #188, #189 );
#131 = SURFACE_SIDE_STYLE( '', ( #190 ) );
#132 = EDGE_LOOP( '', ( #191, #192, #193, #194, #195, #196 ) );
#133 = AXIS2_PLACEMENT_3D( '', #197, #198, #199 );
#134 = SURFACE_SIDE_STYLE( '', ( #200 ) );
#135 = EDGE_LOOP( '', ( #201, #202, #203, #204 ) );
#136 = AXIS2_PLACEMENT_3D( '', #205, #206, #207 );
#137 = SURFACE_SIDE_STYLE( '', ( #208 ) );
#138 = EDGE_LOOP( '', ( #209, #210 ) );
#139 = AXIS2_PLACEMENT_3D( '', #211, #212, #213 );
#140 = SURFACE_SIDE_STYLE( '', ( #214 ) );
#141 = EDGE_LOOP( '', ( #215, #216, #217, #218 ) );
#142 = AXIS2_PLACEMENT_3D( '', #219, #220, #221 );
#143 = SURFACE_SIDE_STYLE( '', ( #222 ) );
#144 = EDGE_LOOP( '', ( #223 ) );
#145 = EDGE_LOOP( '', ( #224 ) );
#146 = AXIS2_PLACEMENT_3D( '', #225, #226, #227 );
#147 = SURFACE_SIDE_STYLE( '', ( #228 ) );
#148 = EDGE_LOOP( '', ( #229 ) );
#149 = EDGE_LOOP( '', ( #230 ) );
#150 = AXIS2_PLACEMENT_3D( '', #231, #232, #233 );
#151 = SURFACE_SIDE_STYLE( '', ( #234 ) );
#152 = EDGE_LOOP( '', ( #235, #236, #237, #238 ) );
#153 = AXIS2_PLACEMENT_3D( '', #239, #240, #241 );
#155 = SURFACE_STYLE_FILL_AREA( #242 );
#156 = ORIENTED_EDGE( '', *, *, #243, .F. );
#157 = ORIENTED_EDGE( '', *, *, #244, .T. );
#158 = CARTESIAN_POINT( '', ( 3.23300000000000, 5.42101086242752E-17, 0.000000000000000 ) );
#159 = DIRECTION( '', ( 0.000000000000000, 1.00000000000000, 0.000000000000000 ) );
#160 = DIRECTION( '', ( 0.000000000000000, -0.000000000000000, 1.00000000000000 ) );
#161 = SURFACE_STYLE_FILL_AREA( #245 );
#162 = VERTEX_POINT( '', #246 );
#163 = ORIENTED_EDGE( '', *, *, #247, .F. );
#164 = CARTESIAN_POINT( '', ( 1.73472347597681E-15, 16.0000000000000, 0.000000000000000 ) );
#165 = DIRECTION( '', ( 0.000000000000000, -1.00000000000000, 0.000000000000000 ) );
#166 = DIRECTION( '', ( 1.00000000000000, 0.000000000000000, 0.000000000000000 ) );
#167 = SURFACE_STYLE_FILL_AREA( #248 );
#168 = ORIENTED_EDGE( '', *, *, #249, .T. );
#169 = ORIENTED_EDGE( '', *, *, #250, .T. );
#170 = ORIENTED_EDGE( '', *, *, #243, .T. );
#171 = ORIENTED_EDGE( '', *, *, #251, .T. );
#172 = ORIENTED_EDGE( '', *, *, #252, .T. );
#173 = ORIENTED_EDGE( '', *, *, #253, .T. );
#174 = CARTESIAN_POINT( '', ( 0.600000000000000, 0.000000000000000, 8.00000000000000 ) );
#175 = DIRECTION( '', ( -1.00000000000000, 0.000000000000000, 0.000000000000000 ) );
#176 = DIRECTION( '', ( 0.000000000000000, 0.000000000000000, 1.00000000000000 ) );
#177 = SURFACE_STYLE_FILL_AREA( #254 );
#178 = ORIENTED_EDGE( '', *, *, #255, .F. );
#179 = ORIENTED_EDGE( '', *, *, #249, .F. );
#180 = ORIENTED_EDGE( '', *, *, #256, .F. );
#181 = ORIENTED_EDGE( '', *, *, #257, .F. );
#182 = ORIENTED_EDGE( '', *, *, #258, .F. );
#183 = ORIENTED_EDGE( '', *, *, #259, .F. );
#184 = ORIENTED_EDGE( '', *, *, #260, .F. );
#185 = ORIENTED_EDGE( '', *, *, #252, .F. );
#186 = ORIENTED_EDGE( '', *, *, #261, .T. );
#187 = CARTESIAN_POINT( '', ( 0.000000000000000, 0.000000000000000, 0.000000000000000 ) );
#188 = DIRECTION( '', ( -0.000000000000000, 1.00000000000000, 0.000000000000000 ) );
#189 = DIRECTION( '', ( 0.000000000000000, 0.000000000000000, -1.00000000000000 ) );
#190 = SURFACE_STYLE_FILL_AREA( #262 );
#191 = ORIENTED_EDGE( '', *, *, #259, .T. );
#192 = ORIENTED_EDGE( '', *, *, #263, .T. );
#193 = ORIENTED_EDGE( '', *, *, #264, .T. );
#194 = ORIENTED_EDGE( '', *, *, #265, .T. );
#195 = ORIENTED_EDGE( '', *, *, #257, .T. );
#196 = ORIENTED_EDGE( '', *, *, #266, .F. );
#197 = CARTESIAN_POINT( '', ( -0.600000000000000, 1.21000000000000, 8.00000000000000 ) );
#198 = DIRECTION( '', ( 1.00000000000000, 0.000000000000000, -0.000000000000000 ) );
#199 = DIRECTION( '', ( -0.000000000000000, 0.000000000000000, -1.00000000000000 ) );
#200 = SURFACE_STYLE_FILL_AREA( #267 );
#201 = ORIENTED_EDGE( '', *, *, #260, .T. );
#202 = ORIENTED_EDGE( '', *, *, #266, .T. );
#203 = ORIENTED_EDGE( '', *, *, #256, .T. );
#204 = ORIENTED_EDGE( '', *, *, #253, .F. );
#205 = CARTESIAN_POINT( '', ( 0.600000000000000, 1.21000000000000, 8.00000000000000 ) );
#206 = DIRECTION( '', ( 0.000000000000000, -1.00000000000000, 0.000000000000000 ) );
#207 = DIRECTION( '', ( 0.000000000000000, 0.000000000000000, -1.00000000000000 ) );
#208 = SURFACE_STYLE_FILL_AREA( #268 );
#209 = ORIENTED_EDGE( '', *, *, #264, .F. );
#210 = ORIENTED_EDGE( '', *, *, #269, .T. );
#211 = CARTESIAN_POINT( '', ( 3.23300000000000, 5.42101086242752E-17, 0.000000000000000 ) );
#212 = DIRECTION( '', ( 0.000000000000000, 1.00000000000000, 0.000000000000000 ) );
#213 = DIRECTION( '', ( 0.000000000000000, -0.000000000000000, 1.00000000000000 ) );
#214 = SURFACE_STYLE_FILL_AREA( #270 );
#215 = ORIENTED_EDGE( '', *, *, #251, .F. );
#216 = ORIENTED_EDGE( '', *, *, #244, .F. );
#217 = ORIENTED_EDGE( '', *, *, #250, .F. );
#218 = ORIENTED_EDGE( '', *, *, #255, .T. );
#219 = CARTESIAN_POINT( '', ( 0.000000000000000, 0.767000000000002, 0.000000000000000 ) );
#220 = DIRECTION( '', ( -0.000000000000000, 1.00000000000000, 0.000000000000000 ) );
#221 = DIRECTION( '', ( 0.000000000000000, -0.000000000000000, 1.00000000000000 ) );
#222 = SURFACE_STYLE_FILL_AREA( #271 );
#223 = ORIENTED_EDGE( '', *, *, #261, .F. );
#224 = ORIENTED_EDGE( '', *, *, #272, .T. );
#225 = CARTESIAN_POINT( '', ( 0.000000000000000, 16.0000000000000, 0.000000000000000 ) );
#226 = DIRECTION( '', ( -0.000000000000000, -1.00000000000000, -0.000000000000000 ) );
#227 = DIRECTION( '', ( 0.000000000000000, 0.000000000000000, -1.00000000000000 ) );
#228 = SURFACE_STYLE_FILL_AREA( #273 );
#229 = ORIENTED_EDGE( '', *, *, #272, .F. );
#230 = ORIENTED_EDGE( '', *, *, #247, .T. );
#231 = CARTESIAN_POINT( '', ( 0.000000000000000, 16.0000000000000, 0.000000000000000 ) );
#232 = DIRECTION( '', ( 0.000000000000000, -1.00000000000000, -0.000000000000000 ) );
#233 = DIRECTION( '', ( 0.000000000000000, 0.000000000000000, -1.00000000000000 ) );
#234 = SURFACE_STYLE_FILL_AREA( #274 );
#235 = ORIENTED_EDGE( '', *, *, #263, .F. );
#236 = ORIENTED_EDGE( '', *, *, #258, .T. );
#237 = ORIENTED_EDGE( '', *, *, #265, .F. );
#238 = ORIENTED_EDGE( '', *, *, #269, .F. );
#239 = CARTESIAN_POINT( '', ( 0.000000000000000, 0.767000000000002, 0.000000000000000 ) );
#240 = DIRECTION( '', ( -0.000000000000000, 1.00000000000000, 0.000000000000000 ) );
#241 = DIRECTION( '', ( 0.000000000000000, -0.000000000000000, 1.00000000000000 ) );
#242 = FILL_AREA_STYLE( '', ( #275 ) );
#243 = EDGE_CURVE( '', #276, #277, #278, .T. );
#244 = EDGE_CURVE( '', #276, #277, #279, .T. );
#245 = FILL_AREA_STYLE( '', ( #280 ) );
#246 = CARTESIAN_POINT( '', ( 1.85718815589154E-15, 18.0000000000000, 0.000000000000000 ) );
#247 = EDGE_CURVE( '', #281, #281, #282, .T. );
#248 = FILL_AREA_STYLE( '', ( #283 ) );
#249 = EDGE_CURVE( '', #284, #285, #286, .T. );
#250 = EDGE_CURVE( '', #285, #276, #287, .T. );
#251 = EDGE_CURVE( '', #277, #288, #289, .T. );
#252 = EDGE_CURVE( '', #288, #290, #291, .F. );
#253 = EDGE_CURVE( '', #290, #284, #292, .T. );
#254 = FILL_AREA_STYLE( '', ( #293 ) );
#255 = EDGE_CURVE( '', #285, #288, #294, .T. );
#256 = EDGE_CURVE( '', #295, #284, #296, .T. );
#257 = EDGE_CURVE( '', #297, #295, #298, .F. );
#258 = EDGE_CURVE( '', #299, #297, #300, .T. );
#259 = EDGE_CURVE( '', #301, #299, #302, .T. );
#260 = EDGE_CURVE( '', #290, #301, #303, .T. );
#261 = EDGE_CURVE( '', #304, #304, #305, .T. );
#262 = FILL_AREA_STYLE( '', ( #306 ) );
#263 = EDGE_CURVE( '', #299, #307, #308, .T. );
#264 = EDGE_CURVE( '', #307, #309, #310, .T. );
#265 = EDGE_CURVE( '', #309, #297, #311, .T. );
#266 = EDGE_CURVE( '', #301, #295, #312, .T. );
#267 = FILL_AREA_STYLE( '', ( #313 ) );
#268 = FILL_AREA_STYLE( '', ( #314 ) );
#269 = EDGE_CURVE( '', #307, #309, #315, .T. );
#270 = FILL_AREA_STYLE( '', ( #316 ) );
#271 = FILL_AREA_STYLE( '', ( #317 ) );
#272 = EDGE_CURVE( '', #318, #318, #319, .T. );
#273 = FILL_AREA_STYLE( '', ( #320 ) );
#274 = FILL_AREA_STYLE( '', ( #321 ) );
#275 = FILL_AREA_STYLE_COLOUR( '', #322 );
#276 = VERTEX_POINT( '', #323 );
#277 = VERTEX_POINT( '', #324 );
#278 = LINE( '', #325, #326 );
#279 = CIRCLE( '', #327, 3.23300000000000 );
#280 = FILL_AREA_STYLE_COLOUR( '', #328 );
#281 = VERTEX_POINT( '', #329 );
#282 = CIRCLE( '', #330, 2.00000000000000 );
#283 = FILL_AREA_STYLE_COLOUR( '', #331 );
#284 = VERTEX_POINT( '', #332 );
#285 = VERTEX_POINT( '', #333 );
#286 = LINE( '', #334, #335 );
#287 = B_SPLINE_CURVE_WITH_KNOTS( '', 3, ( #336, #337, #338, #339 ), .UNSPECIFIED., .F., .F., ( 4, 4 ), ( 0.00683715380202207, 0.00792959567854053 ), .UNSPECIFIED. );
#288 = VERTEX_POINT( '', #340 );
#289 = B_SPLINE_CURVE_WITH_KNOTS( '', 3, ( #341, #342, #343, #344 ), .UNSPECIFIED., .F., .F., ( 4, 4 ), ( 0.0163074210434666, 0.0174091651562161 ), .UNSPECIFIED. );
#290 = VERTEX_POINT( '', #345 );
#291 = LINE( '', #346, #347 );
#292 = LINE( '', #348, #349 );
#293 = FILL_AREA_STYLE_COLOUR( '', #350 );
#294 = CIRCLE( '', #351, 4.00000000000000 );
#295 = VERTEX_POINT( '', #352 );
#296 = CIRCLE( '', #353, 4.00000000000000 );
#297 = VERTEX_POINT( '', #354 );
#298 = LINE( '', #355, #356 );
#299 = VERTEX_POINT( '', #357 );
#300 = CIRCLE( '', #358, 4.00000000000000 );
#301 = VERTEX_POINT( '', #359 );
#302 = LINE( '', #360, #361 );
#303 = CIRCLE( '', #362, 4.00000000000000 );
#304 = VERTEX_POINT( '', #363 );
#305 = CIRCLE( '', #364, 4.00000000000000 );
#306 = FILL_AREA_STYLE_COLOUR( '', #365 );
#307 = VERTEX_POINT( '', #366 );
#308 = B_SPLINE_CURVE_WITH_KNOTS( '', 3, ( #367, #368, #369, #370 ), .UNSPECIFIED., .F., .F., ( 4, 4 ), ( 0.00683715380202207, 0.00792959567854053 ), .UNSPECIFIED. );
#309 = VERTEX_POINT( '', #371 );
#310 = LINE( '', #372, #373 );
#311 = B_SPLINE_CURVE_WITH_KNOTS( '', 3, ( #374, #375, #376, #377 ), .UNSPECIFIED., .F., .F., ( 4, 4 ), ( 0.0163074210434666, 0.0174091651562161 ), .UNSPECIFIED. );
#312 = LINE( '', #378, #379 );
#313 = FILL_AREA_STYLE_COLOUR( '', #380 );
#314 = FILL_AREA_STYLE_COLOUR( '', #381 );
#315 = CIRCLE( '', #382, 3.23300000000000 );
#316 = FILL_AREA_STYLE_COLOUR( '', #383 );
#317 = FILL_AREA_STYLE_COLOUR( '', #384 );
#318 = VERTEX_POINT( '', #385 );
#319 = CIRCLE( '', #386, 3.23300000000000 );
#320 = FILL_AREA_STYLE_COLOUR( '', #387 );
#321 = FILL_AREA_STYLE_COLOUR( '', #388 );
#322 = COLOUR_RGB( '', 0.689999997600000, 0.689999997600000, 0.689999997600000 );
#323 = CARTESIAN_POINT( '', ( 0.600000000000000, 0.000000000000000, -3.17683631935925 ) );
#324 = CARTESIAN_POINT( '', ( 0.600000000000000, 0.000000000000000, 3.17683631935925 ) );
#325 = CARTESIAN_POINT( '', ( 0.600000000000000, 5.42101086242752E-17, 0.000000000000000 ) );
#326 = VECTOR( '', #389, 1000.00000000000 );
#327 = AXIS2_PLACEMENT_3D( '', #390, #391, #392 );
#328 = COLOUR_RGB( '', 0.689999997600000, 0.689999997600000, 0.689999997600000 );
#329 = CARTESIAN_POINT( '', ( 0.000000000000000, 16.0000000000000, -2.00000000000000 ) );
#330 = AXIS2_PLACEMENT_3D( '', #393, #394, #395 );
#331 = COLOUR_RGB( '', 0.689999997600000, 0.689999997600000, 0.689999997600000 );
#332 = CARTESIAN_POINT( '', ( 0.600000000000000, 1.21000000000000, -3.95474398665704 ) );
#333 = CARTESIAN_POINT( '', ( 0.600000000000000, 0.767000000000002, -3.95474398665704 ) );
#334 = CARTESIAN_POINT( '', ( 0.600000000000000, 0.000000000000000, -3.95474398665704 ) );
#335 = VECTOR( '', #396, 1000.00000000000 );
#336 = CARTESIAN_POINT( '', ( 0.600000000000000, 0.767000000000001, -3.95474398665704 ) );
#337 = CARTESIAN_POINT( '', ( 0.600000000000000, 0.510977881797218, -3.69579208578398 ) );
#338 = CARTESIAN_POINT( '', ( 0.600000000000000, 0.255225552914508, -3.43657403626472 ) );
#339 = CARTESIAN_POINT( '', ( 0.600000000000000, -2.40128554862480E-14, -3.17683631935927 ) );
#340 = CARTESIAN_POINT( '', ( 0.600000000000000, 0.767000000000002, 3.95474398665704 ) );
#341 = CARTESIAN_POINT( '', ( 0.600000000000000, 6.75435951229657E-16, 3.17683631935925 ) );
#342 = CARTESIAN_POINT( '', ( 0.600000000000000, 0.255226606218724, 3.43657510819038 ) );
#343 = CARTESIAN_POINT( '', ( 0.600000000000000, 0.510978733197337, 3.69579294692708 ) );
#344 = CARTESIAN_POINT( '', ( 0.600000000000000, 0.767000000000001, 3.95474398665704 ) );
#345 = CARTESIAN_POINT( '', ( 0.600000000000000, 1.21000000000000, 3.95474398665704 ) );
#346 = CARTESIAN_POINT( '', ( 0.600000000000000, 0.000000000000000, 3.95474398665704 ) );
#347 = VECTOR( '', #397, 1000.00000000000 );
#348 = CARTESIAN_POINT( '', ( 0.600000000000000, 1.21000000000000, 8.00000000000000 ) );
#349 = VECTOR( '', #398, 1000.00000000000 );
#350 = COLOUR_RGB( '', 0.689999997600000, 0.689999997600000, 0.689999997600000 );
#351 = AXIS2_PLACEMENT_3D( '', #399, #400, #401 );
#352 = CARTESIAN_POINT( '', ( -0.600000000000000, 1.21000000000000, -3.95474398665704 ) );
#353 = AXIS2_PLACEMENT_3D( '', #402, #403, #404 );
#354 = CARTESIAN_POINT( '', ( -0.600000000000000, 0.767000000000002, -3.95474398665704 ) );
#355 = CARTESIAN_POINT( '', ( -0.600000000000000, 0.000000000000000, -3.95474398665704 ) );
#356 = VECTOR( '', #405, 1000.00000000000 );
#357 = CARTESIAN_POINT( '', ( -0.600000000000000, 0.767000000000002, 3.95474398665704 ) );
#358 = AXIS2_PLACEMENT_3D( '', #406, #407, #408 );
#359 = CARTESIAN_POINT( '', ( -0.600000000000000, 1.21000000000000, 3.95474398665704 ) );
#360 = CARTESIAN_POINT( '', ( -0.600000000000000, 0.000000000000000, 3.95474398665704 ) );
#361 = VECTOR( '', #409, 1000.00000000000 );
#362 = AXIS2_PLACEMENT_3D( '', #410, #411, #412 );
#363 = CARTESIAN_POINT( '', ( 0.000000000000000, 15.2330000000000, -4.00000000000000 ) );
#364 = AXIS2_PLACEMENT_3D( '', #413, #414, #415 );
#365 = COLOUR_RGB( '', 0.689999997600000, 0.689999997600000, 0.689999997600000 );
#366 = CARTESIAN_POINT( '', ( -0.600000000000000, 2.16840434497101E-16, 3.17683631935925 ) );
#367 = CARTESIAN_POINT( '', ( -0.600000000000000, 0.767000000000003, 3.95474398665704 ) );
#368 = CARTESIAN_POINT( '', ( -0.600000000000000, 0.510977881797220, 3.69579208578398 ) );
#369 = CARTESIAN_POINT( '', ( -0.600000000000000, 0.255225552914509, 3.43657403626472 ) );
#370 = CARTESIAN_POINT( '', ( -0.600000000000000, -2.31059731265433E-14, 3.17683631935927 ) );
#371 = CARTESIAN_POINT( '', ( -0.600000000000000, 2.16840434497101E-16, -3.17683631935925 ) );
#372 = CARTESIAN_POINT( '', ( -0.600000000000000, 5.42101086242752E-17, 0.000000000000000 ) );
#373 = VECTOR( '', #416, 1000.00000000000 );
#374 = CARTESIAN_POINT( '', ( -0.600000000000000, -2.98005813119156E-16, -3.17683631935925 ) );
#375 = CARTESIAN_POINT( '', ( -0.600000000000000, 0.255226606218724, -3.43657510819038 ) );
#376 = CARTESIAN_POINT( '', ( -0.600000000000000, 0.510978733197338, -3.69579294692708 ) );
#377 = CARTESIAN_POINT( '', ( -0.600000000000000, 0.767000000000002, -3.95474398665704 ) );
#378 = CARTESIAN_POINT( '', ( -0.600000000000000, 1.21000000000000, 8.00000000000000 ) );
#379 = VECTOR( '', #417, 1000.00000000000 );
#380 = COLOUR_RGB( '', 0.689999997600000, 0.689999997600000, 0.689999997600000 );
#381 = COLOUR_RGB( '', 0.689999997600000, 0.689999997600000, 0.689999997600000 );
#382 = AXIS2_PLACEMENT_3D( '', #418, #419, #420 );
#383 = COLOUR_RGB( '', 0.689999997600000, 0.689999997600000, 0.689999997600000 );
#384 = COLOUR_RGB( '', 0.689999997600000, 0.689999997600000, 0.689999997600000 );
#385 = CARTESIAN_POINT( '', ( 0.000000000000000, 16.0000000000000, -3.23300000000000 ) );
#386 = AXIS2_PLACEMENT_3D( '', #421, #422, #423 );
#387 = COLOUR_RGB( '', 0.689999997600000, 0.689999997600000, 0.689999997600000 );
#388 = COLOUR_RGB( '', 0.689999997600000, 0.689999997600000, 0.689999997600000 );
#389 = DIRECTION( '', ( 0.000000000000000, -0.000000000000000, 1.00000000000000 ) );
#390 = CARTESIAN_POINT( '', ( 0.000000000000000, 1.08420217248550E-16, 0.000000000000000 ) );
#391 = DIRECTION( '', ( 0.000000000000000, -1.00000000000000, -0.000000000000000 ) );
#392 = DIRECTION( '', ( 0.000000000000000, 0.000000000000000, -1.00000000000000 ) );
#393 = CARTESIAN_POINT( '', ( 0.000000000000000, 16.0000000000000, 0.000000000000000 ) );
#394 = DIRECTION( '', ( 0.000000000000000, -1.00000000000000, -0.000000000000000 ) );
#395 = DIRECTION( '', ( 0.000000000000000, 0.000000000000000, -1.00000000000000 ) );
#396 = DIRECTION( '', ( -0.000000000000000, -1.00000000000000, -0.000000000000000 ) );
#397 = DIRECTION( '', ( -0.000000000000000, -1.00000000000000, -0.000000000000000 ) );
#398 = DIRECTION( '', ( -0.000000000000000, -0.000000000000000, -1.00000000000000 ) );
#399 = CARTESIAN_POINT( '', ( 0.000000000000000, 0.767000000000002, 0.000000000000000 ) );
#400 = DIRECTION( '', ( 0.000000000000000, -1.00000000000000, -0.000000000000000 ) );
#401 = DIRECTION( '', ( 0.000000000000000, 0.000000000000000, -1.00000000000000 ) );
#402 = CARTESIAN_POINT( '', ( 0.000000000000000, 1.21000000000000, 0.000000000000000 ) );
#403 = DIRECTION( '', ( 0.000000000000000, -1.00000000000000, 0.000000000000000 ) );
#404 = DIRECTION( '', ( 0.000000000000000, 0.000000000000000, -1.00000000000000 ) );
#405 = DIRECTION( '', ( -0.000000000000000, -1.00000000000000, -0.000000000000000 ) );
#406 = CARTESIAN_POINT( '', ( 0.000000000000000, 0.767000000000002, 0.000000000000000 ) );
#407 = DIRECTION( '', ( 0.000000000000000, -1.00000000000000, -0.000000000000000 ) );
#408 = DIRECTION( '', ( 0.000000000000000, 0.000000000000000, -1.00000000000000 ) );
#409 = DIRECTION( '', ( -0.000000000000000, -1.00000000000000, -0.000000000000000 ) );
#410 = CARTESIAN_POINT( '', ( 0.000000000000000, 1.21000000000000, 0.000000000000000 ) );
#411 = DIRECTION( '', ( 0.000000000000000, -1.00000000000000, 0.000000000000000 ) );
#412 = DIRECTION( '', ( 0.000000000000000, 0.000000000000000, -1.00000000000000 ) );
#413 = CARTESIAN_POINT( '', ( 0.000000000000000, 15.2330000000000, 0.000000000000000 ) );
#414 = DIRECTION( '', ( 0.000000000000000, -1.00000000000000, -0.000000000000000 ) );
#415 = DIRECTION( '', ( 0.000000000000000, 0.000000000000000, -1.00000000000000 ) );
#416 = DIRECTION( '', ( -0.000000000000000, 0.000000000000000, -1.00000000000000 ) );
#417 = DIRECTION( '', ( -0.000000000000000, -0.000000000000000, -1.00000000000000 ) );
#418 = CARTESIAN_POINT( '', ( 0.000000000000000, 1.08420217248550E-16, 0.000000000000000 ) );
#419 = DIRECTION( '', ( 0.000000000000000, -1.00000000000000, -0.000000000000000 ) );
#420 = DIRECTION( '', ( 0.000000000000000, 0.000000000000000, -1.00000000000000 ) );
#421 = CARTESIAN_POINT( '', ( 0.000000000000000, 16.0000000000000, 0.000000000000000 ) );
#422 = DIRECTION( '', ( 0.000000000000000, -1.00000000000000, -0.000000000000000 ) );
#423 = DIRECTION( '', ( 0.000000000000000, 0.000000000000000, -1.00000000000000 ) );
ENDSEC;
END-ISO-10303-21;
