ISO-10303-21;
HEADER;
FILE_DESCRIPTION( ( 'STEP AP214' ), '1' );
FILE_NAME( '//goodhand-server/Shared Folders/GoodHand Data/Kipp CAD/K0140/K0140.052X16.stp', '2020-11-25T12:29:14', ( '' ), ( '' ), ' ', 'PARTsolutions', ' ' );
FILE_SCHEMA( ( 'AUTOMOTIVE_DESIGN { 1 0 10303 214 1 1 1 1 }' ) );
ENDSEC;
DATA;
#1 = MECHANICAL_DESIGN_GEOMETRIC_PRESENTATION_REPRESENTATION( ' ', ( #10, #11, #12, #13, #14, #15, #16, #17, #18, #19, #20, #21, #22 ), #6 );
#2 = PRODUCT_DEFINITION_CONTEXT( '', #23, 'design' );
#3 = APPLICATION_PROTOCOL_DEFINITION( 'international standard', 'automotive_design', 2001, #23 );
#4 = PRODUCT_CATEGORY_RELATIONSHIP( 'NONE', 'NONE', #24, #25 );
#5 = SHAPE_DEFINITION_REPRESENTATION( #26, #27 );
#6 =  ( GEOMETRIC_REPRESENTATION_CONTEXT( 3 )GLOBAL_UNCERTAINTY_ASSIGNED_CONTEXT( ( #30 ) )GLOBAL_UNIT_ASSIGNED_CONTEXT( ( #32, #33, #34 ) )REPRESENTATION_CONTEXT( 'NONE', 'WORKSPACE' ) );
#10 = STYLED_ITEM( '', ( #36 ), #37 );
#11 = STYLED_ITEM( '', ( #38 ), #39 );
#12 = STYLED_ITEM( '', ( #40 ), #41 );
#13 = STYLED_ITEM( '', ( #42 ), #43 );
#14 = STYLED_ITEM( '', ( #44 ), #45 );
#15 = STYLED_ITEM( '', ( #46 ), #47 );
#16 = STYLED_ITEM( '', ( #48 ), #49 );
#17 = STYLED_ITEM( '', ( #50 ), #51 );
#18 = STYLED_ITEM( '', ( #52 ), #53 );
#19 = STYLED_ITEM( '', ( #54 ), #55 );
#20 = STYLED_ITEM( '', ( #56 ), #57 );
#21 = STYLED_ITEM( '', ( #58 ), #59 );
#22 = STYLED_ITEM( '', ( #60 ), #61 );
#23 = APPLICATION_CONTEXT( 'core data for automotive mechanical design processes' );
#24 = PRODUCT_CATEGORY( 'part', 'NONE' );
#25 = PRODUCT_RELATED_PRODUCT_CATEGORY( 'detail', ' ', ( #62 ) );
#26 = PRODUCT_DEFINITION_SHAPE( 'NONE', 'NONE', #63 );
#27 = ADVANCED_BREP_SHAPE_REPRESENTATION( '_K0140.052X16', ( #64, #65 ), #6 );
#30 = UNCERTAINTY_MEASURE_WITH_UNIT( LENGTH_MEASURE( 0.00100000000000000 ), #32, '', '' );
#32 =  ( CONVERSION_BASED_UNIT( 'MILLIMETRE', #68 )LENGTH_UNIT(  )NAMED_UNIT( #71 ) );
#33 =  ( NAMED_UNIT( #73 )PLANE_ANGLE_UNIT(  )SI_UNIT( $, .RADIAN. ) );
#34 =  ( NAMED_UNIT( #73 )SI_UNIT( $, .STERADIAN. )SOLID_ANGLE_UNIT(  ) );
#36 = PRESENTATION_STYLE_ASSIGNMENT( ( #79 ) );
#37 = ADVANCED_FACE( '', ( #80, #81 ), #82, .T. );
#38 = PRESENTATION_STYLE_ASSIGNMENT( ( #83 ) );
#39 = ADVANCED_FACE( '', ( #84, #85 ), #86, .T. );
#40 = PRESENTATION_STYLE_ASSIGNMENT( ( #87 ) );
#41 = ADVANCED_FACE( '', ( #88, #89 ), #90, .T. );
#42 = PRESENTATION_STYLE_ASSIGNMENT( ( #91 ) );
#43 = ADVANCED_FACE( '', ( #92, #93 ), #94, .T. );
#44 = PRESENTATION_STYLE_ASSIGNMENT( ( #95 ) );
#45 = ADVANCED_FACE( '', ( #96, #97 ), #98, .F. );
#46 = PRESENTATION_STYLE_ASSIGNMENT( ( #99 ) );
#47 = ADVANCED_FACE( '', ( #100, #101 ), #102, .T. );
#48 = PRESENTATION_STYLE_ASSIGNMENT( ( #103 ) );
#49 = ADVANCED_FACE( '', ( #104, #105 ), #106, .F. );
#50 = PRESENTATION_STYLE_ASSIGNMENT( ( #107 ) );
#51 = ADVANCED_FACE( '', ( #108 ), #109, .F. );
#52 = PRESENTATION_STYLE_ASSIGNMENT( ( #110 ) );
#53 = ADVANCED_FACE( '', ( #111, #112 ), #113, .F. );
#54 = PRESENTATION_STYLE_ASSIGNMENT( ( #114 ) );
#55 = ADVANCED_FACE( '', ( #115, #116 ), #117, .T. );
#56 = PRESENTATION_STYLE_ASSIGNMENT( ( #118 ) );
#57 = ADVANCED_FACE( '', ( #119, #120 ), #121, .T. );
#58 = PRESENTATION_STYLE_ASSIGNMENT( ( #122 ) );
#59 = ADVANCED_FACE( '', ( #123, #124 ), #125, .T. );
#60 = PRESENTATION_STYLE_ASSIGNMENT( ( #126 ) );
#61 = ADVANCED_FACE( '', ( #127, #128 ), #129, .F. );
#62 = PRODUCT( '_K0140.052X16', '_K0140.052X16', 'PART-_K0140.052X16-DESC', ( #130 ) );
#63 = PRODUCT_DEFINITION( 'NONE', 'NONE', #131, #2 );
#64 = MANIFOLD_SOLID_BREP( '_K0140.052X16', #132 );
#65 = AXIS2_PLACEMENT_3D( '', #133, #134, #135 );
#68 = LENGTH_MEASURE_WITH_UNIT( LENGTH_MEASURE( 1.00000000000000 ), #136 );
#71 = DIMENSIONAL_EXPONENTS( 1.00000000000000, 0.000000000000000, 0.000000000000000, 0.000000000000000, 0.000000000000000, 0.000000000000000, 0.000000000000000 );
#73 = DIMENSIONAL_EXPONENTS( 0.000000000000000, 0.000000000000000, 0.000000000000000, 0.000000000000000, 0.000000000000000, 0.000000000000000, 0.000000000000000 );
#79 = SURFACE_STYLE_USAGE( .BOTH., #137 );
#80 = FACE_OUTER_BOUND( '', #138, .T. );
#81 = FACE_BOUND( '', #139, .T. );
#82 = CONICAL_SURFACE( '', #140, 9.60000000000000, 0.785398163400000 );
#83 = SURFACE_STYLE_USAGE( .BOTH., #141 );
#84 = FACE_OUTER_BOUND( '', #142, .T. );
#85 = FACE_OUTER_BOUND( '', #143, .T. );
#86 = CYLINDRICAL_SURFACE( '', #144, 10.0000000000000 );
#87 = SURFACE_STYLE_USAGE( .BOTH., #145 );
#88 = FACE_BOUND( '', #146, .T. );
#89 = FACE_OUTER_BOUND( '', #147, .T. );
#90 = SPHERICAL_SURFACE( '', #148, 12.8000000000000 );
#91 = SURFACE_STYLE_USAGE( .BOTH., #149 );
#92 = FACE_OUTER_BOUND( '', #150, .T. );
#93 = FACE_OUTER_BOUND( '', #151, .T. );
#94 = CYLINDRICAL_SURFACE( '', #152, 1.85000000000000 );
#95 = SURFACE_STYLE_USAGE( .BOTH., #153 );
#96 = FACE_OUTER_BOUND( '', #154, .T. );
#97 = FACE_OUTER_BOUND( '', #155, .T. );
#98 = TOROIDAL_SURFACE( '', #156, 5.40000000000000, 0.400000000000000 );
#99 = SURFACE_STYLE_USAGE( .BOTH., #157 );
#100 = FACE_OUTER_BOUND( '', #158, .T. );
#101 = FACE_OUTER_BOUND( '', #159, .T. );
#102 = CYLINDRICAL_SURFACE( '', #160, 5.00000000000000 );
#103 = SURFACE_STYLE_USAGE( .BOTH., #161 );
#104 = FACE_BOUND( '', #162, .T. );
#105 = FACE_OUTER_BOUND( '', #163, .T. );
#106 = PLANE( '', #164 );
#107 = SURFACE_STYLE_USAGE( .BOTH., #165 );
#108 = FACE_OUTER_BOUND( '', #166, .T. );
#109 = PLANE( '', #167 );
#110 = SURFACE_STYLE_USAGE( .BOTH., #168 );
#111 = FACE_BOUND( '', #169, .T. );
#112 = FACE_OUTER_BOUND( '', #170, .T. );
#113 = PLANE( '', #171 );
#114 = SURFACE_STYLE_USAGE( .BOTH., #172 );
#115 = FACE_BOUND( '', #173, .T. );
#116 = FACE_OUTER_BOUND( '', #174, .T. );
#117 = CONICAL_SURFACE( '', #175, 10.0000000000000, 0.785398163400000 );
#118 = SURFACE_STYLE_USAGE( .BOTH., #176 );
#119 = FACE_OUTER_BOUND( '', #177, .T. );
#120 = FACE_OUTER_BOUND( '', #178, .T. );
#121 = CYLINDRICAL_SURFACE( '', #179, 2.50000000000000 );
#122 = SURFACE_STYLE_USAGE( .BOTH., #180 );
#123 = FACE_BOUND( '', #181, .T. );
#124 = FACE_OUTER_BOUND( '', #182, .T. );
#125 = CONICAL_SURFACE( '', #183, 5.00000000000000, 0.785398163400000 );
#126 = SURFACE_STYLE_USAGE( .BOTH., #184 );
#127 = FACE_OUTER_BOUND( '', #185, .T. );
#128 = FACE_BOUND( '', #186, .T. );
#129 = PLANE( '', #187 );
#130 = PRODUCT_CONTEXT( '', #23, 'mechanical' );
#131 = PRODUCT_DEFINITION_FORMATION_WITH_SPECIFIED_SOURCE( ' ', 'NONE', #62, .NOT_KNOWN. );
#132 = CLOSED_SHELL( '', ( #57, #61, #43, #49, #59, #47, #45, #53, #55, #39, #37, #51, #41 ) );
#133 = CARTESIAN_POINT( '', ( 0.000000000000000, 0.000000000000000, 0.000000000000000 ) );
#134 = DIRECTION( '', ( 0.000000000000000, 0.000000000000000, 1.00000000000000 ) );
#135 = DIRECTION( '', ( 1.00000000000000, 0.000000000000000, 0.000000000000000 ) );
#136 =  ( LENGTH_UNIT(  )NAMED_UNIT( #71 )SI_UNIT( .MILLI., .METRE. ) );
#137 = SURFACE_SIDE_STYLE( '', ( #189 ) );
#138 = EDGE_LOOP( '', ( #190 ) );
#139 = EDGE_LOOP( '', ( #191 ) );
#140 = AXIS2_PLACEMENT_3D( '', #192, #193, #194 );
#141 = SURFACE_SIDE_STYLE( '', ( #195 ) );
#142 = EDGE_LOOP( '', ( #196 ) );
#143 = EDGE_LOOP( '', ( #197 ) );
#144 = AXIS2_PLACEMENT_3D( '', #198, #199, #200 );
#145 = SURFACE_SIDE_STYLE( '', ( #201 ) );
#146 = VERTEX_LOOP( '', #202 );
#147 = EDGE_LOOP( '', ( #203 ) );
#148 = AXIS2_PLACEMENT_3D( '', #204, #205, #206 );
#149 = SURFACE_SIDE_STYLE( '', ( #207 ) );
#150 = EDGE_LOOP( '', ( #208 ) );
#151 = EDGE_LOOP( '', ( #209 ) );
#152 = AXIS2_PLACEMENT_3D( '', #210, #211, #212 );
#153 = SURFACE_SIDE_STYLE( '', ( #213 ) );
#154 = EDGE_LOOP( '', ( #214 ) );
#155 = EDGE_LOOP( '', ( #215 ) );
#156 = AXIS2_PLACEMENT_3D( '', #216, #217, #218 );
#157 = SURFACE_SIDE_STYLE( '', ( #219 ) );
#158 = EDGE_LOOP( '', ( #220 ) );
#159 = EDGE_LOOP( '', ( #221 ) );
#160 = AXIS2_PLACEMENT_3D( '', #222, #223, #224 );
#161 = SURFACE_SIDE_STYLE( '', ( #225 ) );
#162 = EDGE_LOOP( '', ( #226 ) );
#163 = EDGE_LOOP( '', ( #227 ) );
#164 = AXIS2_PLACEMENT_3D( '', #228, #229, #230 );
#165 = SURFACE_SIDE_STYLE( '', ( #231 ) );
#166 = EDGE_LOOP( '', ( #232 ) );
#167 = AXIS2_PLACEMENT_3D( '', #233, #234, #235 );
#168 = SURFACE_SIDE_STYLE( '', ( #236 ) );
#169 = EDGE_LOOP( '', ( #237 ) );
#170 = EDGE_LOOP( '', ( #238 ) );
#171 = AXIS2_PLACEMENT_3D( '', #239, #240, #241 );
#172 = SURFACE_SIDE_STYLE( '', ( #242 ) );
#173 = EDGE_LOOP( '', ( #243 ) );
#174 = EDGE_LOOP( '', ( #244 ) );
#175 = AXIS2_PLACEMENT_3D( '', #245, #246, #247 );
#176 = SURFACE_SIDE_STYLE( '', ( #248 ) );
#177 = EDGE_LOOP( '', ( #249 ) );
#178 = EDGE_LOOP( '', ( #250 ) );
#179 = AXIS2_PLACEMENT_3D( '', #251, #252, #253 );
#180 = SURFACE_SIDE_STYLE( '', ( #254 ) );
#181 = EDGE_LOOP( '', ( #255 ) );
#182 = EDGE_LOOP( '', ( #256 ) );
#183 = AXIS2_PLACEMENT_3D( '', #257, #258, #259 );
#184 = SURFACE_SIDE_STYLE( '', ( #260 ) );
#185 = EDGE_LOOP( '', ( #261 ) );
#186 = EDGE_LOOP( '', ( #262 ) );
#187 = AXIS2_PLACEMENT_3D( '', #263, #264, #265 );
#189 = SURFACE_STYLE_FILL_AREA( #266 );
#190 = ORIENTED_EDGE( '', *, *, #267, .F. );
#191 = ORIENTED_EDGE( '', *, *, #268, .T. );
#192 = CARTESIAN_POINT( '', ( 0.000000000000000, 0.000000000000000, 0.000000000000000 ) );
#193 = DIRECTION( '', ( 1.00000000000000, -0.000000000000000, -0.000000000000000 ) );
#194 = DIRECTION( '', ( -0.000000000000000, 0.000000000000000, -1.00000000000000 ) );
#195 = SURFACE_STYLE_FILL_AREA( #269 );
#196 = ORIENTED_EDGE( '', *, *, #270, .F. );
#197 = ORIENTED_EDGE( '', *, *, #267, .T. );
#198 = CARTESIAN_POINT( '', ( 27.5000000000000, 0.000000000000000, 0.000000000000000 ) );
#199 = DIRECTION( '', ( -1.00000000000000, -0.000000000000000, 0.000000000000000 ) );
#200 = DIRECTION( '', ( -0.000000000000000, 0.000000000000000, -1.00000000000000 ) );
#201 = SURFACE_STYLE_FILL_AREA( #271 );
#202 = VERTEX_POINT( '', #272 );
#203 = ORIENTED_EDGE( '', *, *, #273, .T. );
#204 = CARTESIAN_POINT( '', ( 14.7000000000000, -1.45283091113058E-14, 0.000000000000000 ) );
#205 = DIRECTION( '', ( 1.00000000000000, 0.000000000000000, 0.000000000000000 ) );
#206 = DIRECTION( '', ( 0.000000000000000, 1.00000000000000, 0.000000000000000 ) );
#207 = SURFACE_STYLE_FILL_AREA( #274 );
#208 = ORIENTED_EDGE( '', *, *, #275, .F. );
#209 = ORIENTED_EDGE( '', *, *, #276, .T. );
#210 = CARTESIAN_POINT( '', ( 27.5000000000000, 0.000000000000000, 0.000000000000000 ) );
#211 = DIRECTION( '', ( -1.00000000000000, -0.000000000000000, 0.000000000000000 ) );
#212 = DIRECTION( '', ( -0.000000000000000, 0.000000000000000, -1.00000000000000 ) );
#213 = SURFACE_STYLE_FILL_AREA( #277 );
#214 = ORIENTED_EDGE( '', *, *, #278, .F. );
#215 = ORIENTED_EDGE( '', *, *, #279, .T. );
#216 = CARTESIAN_POINT( '', ( 4.40000000000000, 0.000000000000000, 0.000000000000000 ) );
#217 = DIRECTION( '', ( 1.00000000000000, 0.000000000000000, -0.000000000000000 ) );
#218 = DIRECTION( '', ( -0.000000000000000, 0.000000000000000, -1.00000000000000 ) );
#219 = SURFACE_STYLE_FILL_AREA( #280 );
#220 = ORIENTED_EDGE( '', *, *, #281, .F. );
#221 = ORIENTED_EDGE( '', *, *, #278, .T. );
#222 = CARTESIAN_POINT( '', ( 27.5000000000000, 0.000000000000000, 0.000000000000000 ) );
#223 = DIRECTION( '', ( -1.00000000000000, -0.000000000000000, 0.000000000000000 ) );
#224 = DIRECTION( '', ( -0.000000000000000, 0.000000000000000, -1.00000000000000 ) );
#225 = SURFACE_STYLE_FILL_AREA( #282 );
#226 = ORIENTED_EDGE( '', *, *, #276, .F. );
#227 = ORIENTED_EDGE( '', *, *, #283, .T. );
#228 = CARTESIAN_POINT( '', ( 11.5000000000000, 4.42500000000000, 0.000000000000000 ) );
#229 = DIRECTION( '', ( -1.00000000000000, 0.000000000000000, 0.000000000000000 ) );
#230 = DIRECTION( '', ( 0.000000000000000, 0.000000000000000, 1.00000000000000 ) );
#231 = SURFACE_STYLE_FILL_AREA( #284 );
#232 = ORIENTED_EDGE( '', *, *, #268, .F. );
#233 = CARTESIAN_POINT( '', ( 0.000000000000000, 0.000000000000000, 0.000000000000000 ) );
#234 = DIRECTION( '', ( 1.00000000000000, 0.000000000000000, -0.000000000000000 ) );
#235 = DIRECTION( '', ( -0.000000000000000, 0.000000000000000, -1.00000000000000 ) );
#236 = SURFACE_STYLE_FILL_AREA( #285 );
#237 = ORIENTED_EDGE( '', *, *, #279, .F. );
#238 = ORIENTED_EDGE( '', *, *, #286, .T. );
#239 = CARTESIAN_POINT( '', ( 4.00000000000000, 9.60000000000000, 0.000000000000000 ) );
#240 = DIRECTION( '', ( -1.00000000000000, 0.000000000000000, 0.000000000000000 ) );
#241 = DIRECTION( '', ( 0.000000000000000, 0.000000000000000, 1.00000000000000 ) );
#242 = SURFACE_STYLE_FILL_AREA( #287 );
#243 = ORIENTED_EDGE( '', *, *, #286, .F. );
#244 = ORIENTED_EDGE( '', *, *, #270, .T. );
#245 = CARTESIAN_POINT( '', ( 3.60000000000000, 0.000000000000000, 0.000000000000000 ) );
#246 = DIRECTION( '', ( -1.00000000000000, 0.000000000000000, -0.000000000000000 ) );
#247 = DIRECTION( '', ( 0.000000000000000, 0.000000000000000, 1.00000000000000 ) );
#248 = SURFACE_STYLE_FILL_AREA( #288 );
#249 = ORIENTED_EDGE( '', *, *, #273, .F. );
#250 = ORIENTED_EDGE( '', *, *, #289, .T. );
#251 = CARTESIAN_POINT( '', ( 27.5000000000000, 0.000000000000000, 0.000000000000000 ) );
#252 = DIRECTION( '', ( -1.00000000000000, -0.000000000000000, 0.000000000000000 ) );
#253 = DIRECTION( '', ( -0.000000000000000, 0.000000000000000, -1.00000000000000 ) );
#254 = SURFACE_STYLE_FILL_AREA( #290 );
#255 = ORIENTED_EDGE( '', *, *, #283, .F. );
#256 = ORIENTED_EDGE( '', *, *, #281, .T. );
#257 = CARTESIAN_POINT( '', ( 10.9250000000000, 0.000000000000000, 0.000000000000000 ) );
#258 = DIRECTION( '', ( -1.00000000000000, 0.000000000000000, -0.000000000000000 ) );
#259 = DIRECTION( '', ( 0.000000000000000, 0.000000000000000, 1.00000000000000 ) );
#260 = SURFACE_STYLE_FILL_AREA( #291 );
#261 = ORIENTED_EDGE( '', *, *, #289, .F. );
#262 = ORIENTED_EDGE( '', *, *, #275, .T. );
#263 = CARTESIAN_POINT( '', ( 13.5000000000000, 1.85000000000000, 0.000000000000000 ) );
#264 = DIRECTION( '', ( 1.00000000000000, 0.000000000000000, -0.000000000000000 ) );
#265 = DIRECTION( '', ( -0.000000000000000, 0.000000000000000, -1.00000000000000 ) );
#266 = FILL_AREA_STYLE( '', ( #292 ) );
#267 = EDGE_CURVE( '', #293, #293, #294, .T. );
#268 = EDGE_CURVE( '', #295, #295, #296, .T. );
#269 = FILL_AREA_STYLE( '', ( #297 ) );
#270 = EDGE_CURVE( '', #298, #298, #299, .T. );
#271 = FILL_AREA_STYLE( '', ( #300 ) );
#272 = CARTESIAN_POINT( '', ( 27.5000000000000, -1.37445351598515E-14, 0.000000000000000 ) );
#273 = EDGE_CURVE( '', #301, #301, #302, .T. );
#274 = FILL_AREA_STYLE( '', ( #303 ) );
#275 = EDGE_CURVE( '', #304, #304, #305, .T. );
#276 = EDGE_CURVE( '', #306, #306, #307, .T. );
#277 = FILL_AREA_STYLE( '', ( #308 ) );
#278 = EDGE_CURVE( '', #309, #309, #310, .T. );
#279 = EDGE_CURVE( '', #311, #311, #312, .T. );
#280 = FILL_AREA_STYLE( '', ( #313 ) );
#281 = EDGE_CURVE( '', #314, #314, #315, .T. );
#282 = FILL_AREA_STYLE( '', ( #316 ) );
#283 = EDGE_CURVE( '', #317, #317, #318, .T. );
#284 = FILL_AREA_STYLE( '', ( #319 ) );
#285 = FILL_AREA_STYLE( '', ( #320 ) );
#286 = EDGE_CURVE( '', #321, #321, #322, .T. );
#287 = FILL_AREA_STYLE( '', ( #323 ) );
#288 = FILL_AREA_STYLE( '', ( #324 ) );
#289 = EDGE_CURVE( '', #325, #325, #326, .T. );
#290 = FILL_AREA_STYLE( '', ( #327 ) );
#291 = FILL_AREA_STYLE( '', ( #328 ) );
#292 = FILL_AREA_STYLE_COLOUR( '', #329 );
#293 = VERTEX_POINT( '', #330 );
#294 = CIRCLE( '', #331, 10.0000000000000 );
#295 = VERTEX_POINT( '', #332 );
#296 = CIRCLE( '', #333, 9.60000000000000 );
#297 = FILL_AREA_STYLE_COLOUR( '', #334 );
#298 = VERTEX_POINT( '', #335 );
#299 = CIRCLE( '', #336, 10.0000000000000 );
#300 = FILL_AREA_STYLE_COLOUR( '', #337 );
#301 = VERTEX_POINT( '', #338 );
#302 = CIRCLE( '', #339, 2.50000000000000 );
#303 = FILL_AREA_STYLE_COLOUR( '', #340 );
#304 = VERTEX_POINT( '', #341 );
#305 = CIRCLE( '', #342, 1.85000000000000 );
#306 = VERTEX_POINT( '', #343 );
#307 = CIRCLE( '', #344, 1.85000000000000 );
#308 = FILL_AREA_STYLE_COLOUR( '', #345 );
#309 = VERTEX_POINT( '', #346 );
#310 = CIRCLE( '', #347, 5.00000000000000 );
#311 = VERTEX_POINT( '', #348 );
#312 = CIRCLE( '', #349, 5.40000000000000 );
#313 = FILL_AREA_STYLE_COLOUR( '', #350 );
#314 = VERTEX_POINT( '', #351 );
#315 = CIRCLE( '', #352, 5.00000000000000 );
#316 = FILL_AREA_STYLE_COLOUR( '', #353 );
#317 = VERTEX_POINT( '', #354 );
#318 = CIRCLE( '', #355, 4.42500000000000 );
#319 = FILL_AREA_STYLE_COLOUR( '', #356 );
#320 = FILL_AREA_STYLE_COLOUR( '', #357 );
#321 = VERTEX_POINT( '', #358 );
#322 = CIRCLE( '', #359, 9.60000000000000 );
#323 = FILL_AREA_STYLE_COLOUR( '', #360 );
#324 = FILL_AREA_STYLE_COLOUR( '', #361 );
#325 = VERTEX_POINT( '', #362 );
#326 = CIRCLE( '', #363, 2.50000000000000 );
#327 = FILL_AREA_STYLE_COLOUR( '', #364 );
#328 = FILL_AREA_STYLE_COLOUR( '', #365 );
#329 = COLOUR_RGB( '', 0.689999997600000, 0.689999997600000, 0.689999997600000 );
#330 = CARTESIAN_POINT( '', ( 0.400000000000001, 0.000000000000000, -10.0000000000000 ) );
#331 = AXIS2_PLACEMENT_3D( '', #366, #367, #368 );
#332 = CARTESIAN_POINT( '', ( 0.000000000000000, 0.000000000000000, -9.60000000000000 ) );
#333 = AXIS2_PLACEMENT_3D( '', #369, #370, #371 );
#334 = COLOUR_RGB( '', 0.689999997600000, 0.689999997600000, 0.689999997600000 );
#335 = CARTESIAN_POINT( '', ( 3.60000000000000, 0.000000000000000, -10.0000000000000 ) );
#336 = AXIS2_PLACEMENT_3D( '', #372, #373, #374 );
#337 = COLOUR_RGB( '', 0.689999997600000, 0.689999997600000, 0.689999997600000 );
#338 = CARTESIAN_POINT( '', ( 27.2534855717446, 0.000000000000000, -2.50000000000000 ) );
#339 = AXIS2_PLACEMENT_3D( '', #375, #376, #377 );
#340 = COLOUR_RGB( '', 0.689999997600000, 0.689999997600000, 0.689999997600000 );
#341 = CARTESIAN_POINT( '', ( 13.5000000000000, 0.000000000000000, -1.85000000000000 ) );
#342 = AXIS2_PLACEMENT_3D( '', #378, #379, #380 );
#343 = CARTESIAN_POINT( '', ( 11.5000000000000, 0.000000000000000, -1.85000000000000 ) );
#344 = AXIS2_PLACEMENT_3D( '', #381, #382, #383 );
#345 = COLOUR_RGB( '', 0.689999997600000, 0.689999997600000, 0.689999997600000 );
#346 = CARTESIAN_POINT( '', ( 4.40000000000000, 0.000000000000000, -5.00000000000000 ) );
#347 = AXIS2_PLACEMENT_3D( '', #384, #385, #386 );
#348 = CARTESIAN_POINT( '', ( 4.00000000000000, 0.000000000000000, -5.40000000000000 ) );
#349 = AXIS2_PLACEMENT_3D( '', #387, #388, #389 );
#350 = COLOUR_RGB( '', 0.689999997600000, 0.689999997600000, 0.689999997600000 );
#351 = CARTESIAN_POINT( '', ( 10.9250000000000, 0.000000000000000, -5.00000000000000 ) );
#352 = AXIS2_PLACEMENT_3D( '', #390, #391, #392 );
#353 = COLOUR_RGB( '', 0.689999997600000, 0.689999997600000, 0.689999997600000 );
#354 = CARTESIAN_POINT( '', ( 11.5000000000000, 0.000000000000000, -4.42500000000000 ) );
#355 = AXIS2_PLACEMENT_3D( '', #393, #394, #395 );
#356 = COLOUR_RGB( '', 0.689999997600000, 0.689999997600000, 0.689999997600000 );
#357 = COLOUR_RGB( '', 0.689999997600000, 0.689999997600000, 0.689999997600000 );
#358 = CARTESIAN_POINT( '', ( 4.00000000000000, 0.000000000000000, -9.60000000000000 ) );
#359 = AXIS2_PLACEMENT_3D( '', #396, #397, #398 );
#360 = COLOUR_RGB( '', 0.689999997600000, 0.689999997600000, 0.689999997600000 );
#361 = COLOUR_RGB( '', 0.689999997600000, 0.689999997600000, 0.689999997600000 );
#362 = CARTESIAN_POINT( '', ( 13.5000000000000, 0.000000000000000, -2.50000000000000 ) );
#363 = AXIS2_PLACEMENT_3D( '', #399, #400, #401 );
#364 = COLOUR_RGB( '', 0.689999997600000, 0.689999997600000, 0.689999997600000 );
#365 = COLOUR_RGB( '', 0.689999997600000, 0.689999997600000, 0.689999997600000 );
#366 = CARTESIAN_POINT( '', ( 0.400000000000001, 0.000000000000000, 0.000000000000000 ) );
#367 = DIRECTION( '', ( 1.00000000000000, 0.000000000000000, -0.000000000000000 ) );
#368 = DIRECTION( '', ( -0.000000000000000, 0.000000000000000, -1.00000000000000 ) );
#369 = CARTESIAN_POINT( '', ( 0.000000000000000, 0.000000000000000, 0.000000000000000 ) );
#370 = DIRECTION( '', ( 1.00000000000000, 0.000000000000000, -0.000000000000000 ) );
#371 = DIRECTION( '', ( -0.000000000000000, 0.000000000000000, -1.00000000000000 ) );
#372 = CARTESIAN_POINT( '', ( 3.60000000000000, 0.000000000000000, 0.000000000000000 ) );
#373 = DIRECTION( '', ( 1.00000000000000, 0.000000000000000, -0.000000000000000 ) );
#374 = DIRECTION( '', ( -0.000000000000000, 0.000000000000000, -1.00000000000000 ) );
#375 = CARTESIAN_POINT( '', ( 27.2534855717446, 0.000000000000000, 0.000000000000000 ) );
#376 = DIRECTION( '', ( 1.00000000000000, 0.000000000000000, -0.000000000000000 ) );
#377 = DIRECTION( '', ( -0.000000000000000, 0.000000000000000, -1.00000000000000 ) );
#378 = CARTESIAN_POINT( '', ( 13.5000000000000, 0.000000000000000, 0.000000000000000 ) );
#379 = DIRECTION( '', ( 1.00000000000000, 0.000000000000000, -0.000000000000000 ) );
#380 = DIRECTION( '', ( -0.000000000000000, 0.000000000000000, -1.00000000000000 ) );
#381 = CARTESIAN_POINT( '', ( 11.5000000000000, 0.000000000000000, 0.000000000000000 ) );
#382 = DIRECTION( '', ( 1.00000000000000, 0.000000000000000, -0.000000000000000 ) );
#383 = DIRECTION( '', ( -0.000000000000000, 0.000000000000000, -1.00000000000000 ) );
#384 = CARTESIAN_POINT( '', ( 4.40000000000000, 0.000000000000000, 0.000000000000000 ) );
#385 = DIRECTION( '', ( 1.00000000000000, 0.000000000000000, -0.000000000000000 ) );
#386 = DIRECTION( '', ( -0.000000000000000, 0.000000000000000, -1.00000000000000 ) );
#387 = CARTESIAN_POINT( '', ( 4.00000000000000, 0.000000000000000, 0.000000000000000 ) );
#388 = DIRECTION( '', ( 1.00000000000000, 0.000000000000000, -0.000000000000000 ) );
#389 = DIRECTION( '', ( -0.000000000000000, 0.000000000000000, -1.00000000000000 ) );
#390 = CARTESIAN_POINT( '', ( 10.9250000000000, 0.000000000000000, 0.000000000000000 ) );
#391 = DIRECTION( '', ( 1.00000000000000, 0.000000000000000, -0.000000000000000 ) );
#392 = DIRECTION( '', ( -0.000000000000000, 0.000000000000000, -1.00000000000000 ) );
#393 = CARTESIAN_POINT( '', ( 11.5000000000000, 0.000000000000000, 0.000000000000000 ) );
#394 = DIRECTION( '', ( 1.00000000000000, 0.000000000000000, -0.000000000000000 ) );
#395 = DIRECTION( '', ( -0.000000000000000, 0.000000000000000, -1.00000000000000 ) );
#396 = CARTESIAN_POINT( '', ( 4.00000000000000, 0.000000000000000, 0.000000000000000 ) );
#397 = DIRECTION( '', ( 1.00000000000000, 0.000000000000000, -0.000000000000000 ) );
#398 = DIRECTION( '', ( -0.000000000000000, 0.000000000000000, -1.00000000000000 ) );
#399 = CARTESIAN_POINT( '', ( 13.5000000000000, 0.000000000000000, 0.000000000000000 ) );
#400 = DIRECTION( '', ( 1.00000000000000, 0.000000000000000, -0.000000000000000 ) );
#401 = DIRECTION( '', ( -0.000000000000000, 0.000000000000000, -1.00000000000000 ) );
ENDSEC;
END-ISO-10303-21;
